  0
SECTION
  2
HEADER
  9
$ACADVER
  1
AC1009
  9
$INSBASE
 10
0.0
 20
0.0
 30
0.0
  9
$EXTMIN
 10
-722.950154
 20
120.359495
 30
-0.001526
  9
$EXTMAX
 10
2655.986494
 20
2891.539641
 30
0.0
  9
$LIMMIN
 10
0.0
 20
0.0
  9
$LIMMAX
 10
12.0
 20
9.0
  9
$ORTHOMODE
 70
     0
  9
$REGENMODE
 70
     1
  9
$FILLMODE
 70
     1
  9
$QTEXTMODE
 70
     0
  9
$MIRRTEXT
 70
     1
  9
$DRAGMODE
 70
     2
  9
$LTSCALE
 40
4.0
  9
$OSMODE
 70
   167
  9
$ATTMODE
 70
     1
  9
$TEXTSIZE
 40
0.2
  9
$TRACEWID
 40
0.05
  9
$TEXTSTYLE
  7
STANDARD
  9
$CLAYER
  8
0
  9
$CELTYPE
  6
BYLAYER
  9
$CECOLOR
 62
   256
  9
$DIMSCALE
 40
1.0
  9
$DIMASZ
 40
0.18
  9
$DIMEXO
 40
0.0625
  9
$DIMDLI
 40
0.38
  9
$DIMRND
 40
0.0
  9
$DIMDLE
 40
0.0
  9
$DIMEXE
 40
0.18
  9
$DIMTP
 40
0.0
  9
$DIMTM
 40
0.0
  9
$DIMTXT
 40
0.18
  9
$DIMCEN
 40
0.09
  9
$DIMTSZ
 40
0.0
  9
$DIMTOL
 70
     0
  9
$DIMLIM
 70
     0
  9
$DIMTIH
 70
     1
  9
$DIMTOH
 70
     1
  9
$DIMSE1
 70
     0
  9
$DIMSE2
 70
     0
  9
$DIMTAD
 70
     0
  9
$DIMZIN
 70
     0
  9
$DIMBLK
  1

  9
$DIMASO
 70
     1
  9
$DIMSHO
 70
     1
  9
$DIMPOST
  1

  9
$DIMAPOST
  1

  9
$DIMALT
 70
     0
  9
$DIMALTD
 70
     2
  9
$DIMALTF
 40
25.4
  9
$DIMLFAC
 40
1.0
  9
$DIMTOFL
 70
     0
  9
$DIMTVP
 40
0.0
  9
$DIMTIX
 70
     0
  9
$DIMSOXD
 70
     0
  9
$DIMSAH
 70
     0
  9
$DIMBLK1
  1

  9
$DIMBLK2
  1

  9
$DIMSTYLE
  2
STANDARD
  9
$DIMCLRD
 70
     0
  9
$DIMCLRE
 70
     0
  9
$DIMCLRT
 70
     0
  9
$DIMTFAC
 40
1.0
  9
$DIMGAP
 40
0.09
  9
$LUNITS
 70
     2
  9
$LUPREC
 70
     4
  9
$SKETCHINC
 40
0.1
  9
$FILLETRAD
 40
0.5
  9
$AUNITS
 70
     0
  9
$AUPREC
 70
     0
  9
$MENU
  1
.
  9
$ELEVATION
 40
0.0
  9
$PELEVATION
 40
0.0
  9
$THICKNESS
 40
0.0
  9
$LIMCHECK
 70
     0
  9
$BLIPMODE
 70
     0
  9
$CHAMFERA
 40
0.5
  9
$CHAMFERB
 40
0.5
  9
$SKPOLY
 70
     1
  9
$TDCREATE
 40
2451209.749893
  9
$TDUPDATE
 40
2451225.438485
  9
$TDINDWG
 40
0.002738
  9
$TDUSRTIMER
 40
0.002738
  9
$USRTIMER
 70
     1
  9
$ANGBASE
 50
0.0
  9
$ANGDIR
 70
     0
  9
$PDMODE
 70
     0
  9
$PDSIZE
 40
0.0
  9
$PLINEWID
 40
0.0
  9
$COORDS
 70
     1
  9
$SPLFRAME
 70
     0
  9
$SPLINETYPE
 70
     6
  9
$SPLINESEGS
 70
     8
  9
$ATTDIA
 70
     0
  9
$ATTREQ
 70
     1
  9
$HANDLING
 70
     1
  9
$HANDSEED
  5
3F3
  9
$SURFTAB1
 70
     6
  9
$SURFTAB2
 70
     6
  9
$SURFTYPE
 70
     6
  9
$SURFU
 70
     6
  9
$SURFV
 70
     6
  9
$UCSNAME
  2

  9
$UCSORG
 10
0.0
 20
0.0
 30
0.0
  9
$UCSXDIR
 10
1.0
 20
0.0
 30
0.0
  9
$UCSYDIR
 10
0.0
 20
1.0
 30
0.0
  9
$PUCSNAME
  2

  9
$PUCSORG
 10
0.0
 20
0.0
 30
0.0
  9
$PUCSXDIR
 10
1.0
 20
0.0
 30
0.0
  9
$PUCSYDIR
 10
0.0
 20
1.0
 30
0.0
  9
$USERI1
 70
     0
  9
$USERI2
 70
     0
  9
$USERI3
 70
     0
  9
$USERI4
 70
     0
  9
$USERI5
 70
     0
  9
$USERR1
 40
0.0
  9
$USERR2
 40
0.0
  9
$USERR3
 40
0.0
  9
$USERR4
 40
0.0
  9
$USERR5
 40
0.0
  9
$WORLDVIEW
 70
     1
  9
$SHADEDGE
 70
     3
  9
$SHADEDIF
 70
    70
  9
$TILEMODE
 70
     1
  9
$MAXACTVP
 70
    48
  9
$PLIMCHECK
 70
     0
  9
$PEXTMIN
 10
1.000000E+020
 20
1.000000E+020
 30
1.000000E+020
  9
$PEXTMAX
 10
-1.000000E+020
 20
-1.000000E+020
 30
-1.000000E+020
  9
$PLIMMIN
 10
0.0
 20
0.0
  9
$PLIMMAX
 10
12.0
 20
9.0
  9
$UNITMODE
 70
     0
  9
$VISRETAIN
 70
     1
  9
$PLINEGEN
 70
     0
  9
$PSLTSCALE
 70
     1
  0
ENDSEC
  0
SECTION
  2
TABLES
  0
TABLE
  2
VPORT
 70
     8
  0
VPORT
  2
*ACTIVE
 70
     0
 10
0.0
 20
0.0
 11
1.0
 21
1.0
 12
871.485573
 22
1505.949568
 13
0.0
 23
0.0
 14
0.5
 24
0.5
 15
0.5
 25
0.5
 16
0.0
 26
0.0
 36
1.0
 17
0.0
 27
0.0
 37
0.0
 40
2812.747848
 41
1.756892
 42
50.0
 43
0.0
 44
0.0
 50
0.0
 51
0.0
 71
     0
 72
   100
 73
     1
 74
     1
 75
     0
 76
     0
 77
     0
 78
     0
  0
ENDTAB
  0
TABLE
  2
LTYPE
 70
     2
  0
LTYPE
  2
CONTINUOUS
 70
     0
  3
Solid line
 72
    65
 73
     0
 40
0.0
  0
LTYPE
  2
DASHED2
 70
     0
  3
Dashed (.5x) _ _ _ _ _ _ _ _ _ _ _ _ _ _ _ _ _
 72
    65
 73
     2
 40
9.525
 49
6.35
 49
-3.175
  0
ENDTAB
  0
TABLE
  2
LAYER
 70
     3
  0
LAYER
  2
0
 70
     0
 62
     7
  6
CONTINUOUS
  0
LAYER
  2
CONTORNO_PAGINA
 70
     0
 62
     7
  6
CONTINUOUS
  0
LAYER
  2
LAYER1
 70
     0
 62
     7
  6
CONTINUOUS
  0
ENDTAB
  0
TABLE
  2
STYLE
 70
     2
  0
STYLE
  2
STANDARD
 70
     0
 40
0.0
 41
1.0
 50
0.0
 71
     0
 42
0.2
  3
txt
  4

  0
STYLE
  2
SIMPLEX_INCLINATO
 70
     0
 40
2.0
 41
1.0
 50
15.0
 71
     0
 42
89.952478
  3
simplex.shx
  4

  0
ENDTAB
  0
TABLE
  2
VIEW
 70
     0
  0
ENDTAB
  0
TABLE
  2
UCS
 70
     0
  0
ENDTAB
  0
TABLE
  2
APPID
 70
     1
  0
APPID
  2
ACAD
 70
     0
  0
ENDTAB
  0
TABLE
  2
DIMSTYLE
 70
     1
  0
DIMSTYLE
  2
STANDARD
 70
     0
  3

  4

  5

  6

  7

 40
1.0
 41
0.18
 42
0.0625
 43
0.38
 44
0.18
 45
0.0
 46
0.0
 47
0.0
 48
0.0
140
0.18
141
0.09
142
0.0
143
25.4
144
1.0
145
0.0
146
1.0
147
0.09
 71
     0
 72
     0
 73
     1
 74
     1
 75
     0
 76
     0
 77
     0
 78
     0
170
     0
171
     2
172
     0
173
     0
174
     0
175
     0
176
     0
177
     0
178
     0
  0
ENDTAB
  0
ENDSEC
  0
SECTION
  2
BLOCKS
  0
BLOCK
  8
0
  2
$MODEL_SPACE
 70
     0
 10
0.0
 20
0.0
 30
0.0
  3
$MODEL_SPACE
  1

  0
ENDBLK
  5
1B
  8
0
  0
BLOCK
 67
     1
  8
0
  2
$PAPER_SPACE
 70
     0
 10
0.0
 20
0.0
 30
0.0
  3
$PAPER_SPACE
  1

  0
ENDBLK
  5
18
 67
     1
  8
0
  0
BLOCK
  8
0
  2
A$C4B960F43
 70
     0
 10
0.0
 20
0.0
 30
0.0
  3
A$C4B960F43
  1

  0
LINE
  5
54
  8
CONTORNO_PAGINA
 62
   150
 10
2535.268496
 20
-0.000004
 30
0.0
 11
2535.268496
 21
2770.947445
 31
0.0
  0
LINE
  5
55
  8
CONTORNO_PAGINA
 62
     5
 10
2505.268496
 20
29.999996
 30
0.0
 11
2505.268496
 21
2740.947445
 31
0.0
  0
LINE
  5
56
  8
CONTORNO_PAGINA
 62
     5
 10
29.999998
 20
29.999996
 30
0.0
 11
29.999998
 21
2740.947445
 31
0.0
  0
LINE
  5
57
  8
CONTORNO_PAGINA
 62
   150
 10
-0.000002
 20
-0.000004
 30
0.0
 11
-0.000002
 21
2770.947445
 31
0.0
  0
LINE
  5
58
  8
CONTORNO_PAGINA
 62
   150
 10
-0.000002
 20
2770.947445
 30
0.0
 11
2535.268496
 21
2770.947445
 31
0.0
  0
LINE
  5
59
  8
CONTORNO_PAGINA
 62
     5
 10
29.999998
 20
2740.947445
 30
0.0
 11
2505.268496
 21
2740.947445
 31
0.0
  0
LINE
  5
5A
  8
LAYER1
 62
   150
 10
29.999998
 20
142.021623
 30
0.0
 11
2505.268496
 21
142.021623
 31
0.0
  0
LINE
  5
5B
  8
LAYER1
 62
     4
 10
29.999998
 20
197.314352
 30
0.0
 11
2505.268496
 21
197.314352
 31
0.0
  0
LINE
  5
5C
  8
CONTORNO_PAGINA
 62
   150
 10
-0.000002
 20
-0.000004
 30
0.0
 11
2535.268496
 21
-0.000004
 31
0.0
  0
LINE
  5
5D
  8
CONTORNO_PAGINA
 62
     5
 10
29.999998
 20
29.999996
 30
0.0
 11
2505.268496
 21
29.999996
 31
0.0
  0
TEXT
  8
0
  40
25
  5
3ED
  62
5
  72
0
  71
0
 10
605.154
 20
152.107
 30
0.000000
  1
Denominazione commerciale
  7
SIMPLEX_INCLINATO
  0
LINE
  5
5F
  8
LAYER1
 62
     4
 10
588.132925
 20
29.999996
 30
0.0
 11
588.132925
 21
197.314352
 31
0.0
  0
TEXT
  8
0
  40
25
  5
3EE
  62
5
  72
0
  71
0
 10
47.0215
 20
152.107
 30
0.000000
  1
Codice n.
  7
SIMPLEX_INCLINATO
  0
LINE
  5
61
  8
LAYER1
 62
     4
 10
2220.4585
 20
29.999996
 30
0.0
 11
2220.4585
 21
197.314352
 31
0.0
  0
TEXT
  8
0
  40
25
  5
3EF
  62
5
  72
0
  71
0
 10
2237.48
 20
152.107
 30
0.000000
  1
scala
  7
SIMPLEX_INCLINATO
  0
ENDBLK
  5
64
  8
0
  0
BLOCK
  8
0
  2
A$C6F1D32CD
 70
     0
 10
0.0
 20
0.0
 30
0.0
  3
A$C6F1D32CD
  1

  0
LINE
  5
163
  8
0
 10
717.393387
 20
74.823815
 30
0.0
 11
614.450442
 21
234.697242
 31
0.0
  0
LINE
  5
164
  8
0
 10
532.505554
 20
-0.000001
 30
0.0
 11
532.505554
 21
234.582838
 31
0.0
  0
LINE
  5
165
  8
0
 10
96.194662
 20
59.533441
 30
0.0
 11
96.194662
 21
296.578201
 31
0.0
  0
LINE
  5
166
  8
0
 10
295.283614
 20
60.431216
 30
0.0
 11
295.283614
 21
234.582838
 31
0.0
  0
LINE
  5
167
  8
0
 10
315.055357
 20
60.431216
 30
0.0
 11
315.055357
 21
234.582838
 31
0.0
  0
LINE
  5
168
  8
0
 10
-0.000006
 20
93.696738
 30
0.0
 11
-0.000006
 21
262.414905
 31
0.0
  0
ARC
  5
169
  8
0
 10
423.780456
 20
130.634456
 30
0.0
 40
108.725098
 50
180.0
 51
0.0
  0
LINE
  5
16A
  8
0
 62
     8
 10
295.283614
 20
85.568922
 30
0.0
 11
96.194662
 21
85.568922
 31
0.0
  0
LINE
  5
16B
  8
0
 10
295.283614
 20
66.715641
 30
0.0
 11
107.695383
 21
66.715641
 31
0.0
  0
LINE
  5
16C
  8
0
 62
     8
 10
295.283614
 20
102.626652
 30
0.0
 11
110.574114
 21
102.626652
 31
0.0
  0
ARC
  5
16D
  8
0
 10
175.732571
 20
436.001656
 30
0.0
 40
384.778632
 50
242.824932
 51
258.070332
  0
LINE
  5
16E
  8
0
 10
107.695383
 20
66.715641
 30
0.0
 11
96.194662
 21
85.568922
 31
0.0
  0
LINE
  5
16F
  8
0
 10
315.055357
 20
60.431216
 30
0.0
 11
295.283614
 21
60.431216
 31
0.0
  0
LINE
  5
170
  8
0
 10
717.393387
 20
-0.000001
 30
0.0
 11
717.393387
 21
74.823815
 31
0.0
  0
LINE
  5
171
  8
0
 10
532.505554
 20
-0.000001
 30
0.0
 11
717.393387
 21
-0.000001
 31
0.0
  0
LINE
  5
172
  8
0
 10
612.426494
 20
589.999999
 30
0.0
 11
235.134417
 21
589.999999
 31
0.0
  0
LINE
  5
173
  8
0
 62
     1
 10
516.388307
 20
568.602927
 30
0.0
 11
238.571323
 21
568.602927
 31
0.0
  0
LINE
  5
174
  8
0
 10
612.426494
 20
234.582838
 30
0.0
 11
235.134417
 21
234.582838
 31
0.0
  0
LINE
  5
175
  8
0
 62
     1
 10
630.386661
 20
290.593314
 30
0.0
 11
217.17425
 21
290.593314
 31
0.0
  0
LINE
  5
176
  8
0
 62
     1
 10
516.388307
 20
311.480416
 30
0.0
 11
238.571323
 21
311.480416
 31
0.0
  0
LINE
  5
177
  8
0
 10
217.17425
 20
252.543004
 30
0.0
 11
217.17425
 21
572.039833
 31
0.0
  0
LINE
  5
178
  8
0
 62
     1
 10
238.571323
 20
311.480416
 30
0.0
 11
238.571323
 21
568.602927
 31
0.0
  0
ARC
  5
179
  8
0
 10
235.134417
 20
252.543004
 30
0.0
 40
17.960167
 50
180.0
 51
270.0
  0
LINE
  5
17A
  8
0
 62
     8
 10
295.283614
 20
170.857574
 30
0.0
 11
110.574114
 21
170.857574
 31
0.0
  0
LINE
  5
17B
  8
0
 62
     8
 10
295.283614
 20
187.915304
 30
0.0
 11
110.574114
 21
187.915304
 31
0.0
  0
LINE
  5
17C
  8
0
 62
     8
 10
295.283614
 20
153.799843
 30
0.0
 11
110.574114
 21
153.799843
 31
0.0
  0
LINE
  5
17D
  8
0
 62
     8
 10
295.283614
 20
119.684382
 30
0.0
 11
110.574114
 21
119.684382
 31
0.0
  0
LINE
  5
17E
  8
0
 62
     8
 10
295.283614
 20
136.742113
 30
0.0
 11
110.574114
 21
136.742113
 31
0.0
  0
LINE
  5
17F
  8
0
 62
     8
 10
295.283614
 20
204.973034
 30
0.0
 11
110.574114
 21
204.973034
 31
0.0
  0
LINE
  5
180
  8
0
 62
     8
 10
295.283614
 20
222.030765
 30
0.0
 11
110.574114
 21
222.030765
 31
0.0
  0
LINE
  5
181
  8
0
 10
217.17425
 20
289.396001
 30
0.0
 11
107.695383
 21
289.396001
 31
0.0
  0
LINE
  5
182
  8
0
 62
     8
 10
217.17425
 20
270.542721
 30
0.0
 11
96.194662
 21
270.542721
 31
0.0
  0
LINE
  5
183
  8
0
 10
107.695383
 20
289.396001
 30
0.0
 11
96.194662
 21
270.542721
 31
0.0
  0
ARC
  5
184
  8
0
 10
175.732571
 20
-79.890014
 30
0.0
 40
384.778632
 50
101.929668
 51
117.175068
  0
LINE
  5
185
  8
0
 62
     8
 10
223.2372
 20
239.088495
 30
0.0
 11
110.574114
 21
239.088495
 31
0.0
  0
LINE
  5
186
  8
0
 62
     8
 10
217.17425
 20
256.146225
 30
0.0
 11
110.574114
 21
256.146225
 31
0.0
  0
ARC
  5
187
  8
0
 10
235.134417
 20
572.039833
 30
0.0
 40
17.960167
 50
90.0
 51
180.0
  0
LINE
  5
188
  8
0
 10
630.386661
 20
252.543004
 30
0.0
 11
630.386661
 21
572.039833
 31
0.0
  0
LINE
  5
189
  8
0
 62
     1
 10
516.388307
 20
311.480416
 30
0.0
 11
516.388307
 21
568.602927
 31
0.0
  0
ARC
  5
18A
  8
0
 10
612.426494
 20
252.543004
 30
0.0
 40
17.960167
 50
270.0
 51
0.0
  0
LINE
  5
18B
  8
0
 10
754.999994
 20
489.929425
 30
0.0
 11
630.386661
 21
489.929425
 31
0.0
  0
LINE
  5
18C
  8
0
 10
630.386661
 20
364.558434
 30
0.0
 11
754.999994
 21
364.558434
 31
0.0
  0
LINE
  5
18D
  8
0
 10
570.024299
 20
328.01019
 30
0.0
 11
535.585525
 21
328.01019
 31
0.0
  0
LINE
  5
18E
  8
0
 10
570.024299
 20
363.040889
 30
0.0
 11
535.585525
 21
363.040889
 31
0.0
  0
LINE
  5
18F
  8
0
 10
535.585525
 20
328.01019
 30
0.0
 11
535.585525
 21
363.040889
 31
0.0
  0
LINE
  5
190
  8
0
 10
570.024299
 20
328.01019
 30
0.0
 11
570.024299
 21
363.040889
 31
0.0
  0
LINE
  5
191
  8
0
 10
754.999994
 20
364.558434
 30
0.0
 11
754.999994
 21
489.929425
 31
0.0
  0
ARC
  5
192
  8
0
 10
612.426494
 20
572.039833
 30
0.0
 40
17.960167
 50
0.0
 51
90.0
  0
ENDBLK
  5
194
  8
0
  0
BLOCK
  8
0
  2
A$C4C616CB4
 70
     0
 10
0.0
 20
0.0
 30
0.0
  3
A$C4C616CB4
  1

  0
LINE
  5
2B1
  8
0
 10
684.64041
 20
470.000002
 30
0.0
 11
1271.238625
 21
470.000002
 31
0.0
  0
LINE
  5
2B2
  8
0
 10
993.136862
 20
238.954257
 30
0.0
 11
930.181406
 21
238.954257
 31
0.0
  0
LINE
  5
2B3
  8
0
 10
993.136862
 20
232.390534
 30
0.0
 11
926.899544
 21
232.390534
 31
0.0
  0
LINE
  5
2B4
  8
0
 62
     1
 10
859.335795
 20
157.544207
 30
0.0
 11
981.179971
 21
157.544207
 31
0.0
  0
LINE
  5
2B5
  8
0
 10
819.233961
 20
271.417128
 30
0.0
 11
1215.957484
 21
271.417128
 31
0.0
  0
LINE
  5
2B6
  8
0
 10
819.233961
 20
251.081329
 30
0.0
 11
1215.957484
 21
251.081329
 31
0.0
  0
LINE
  5
2B7
  8
0
 10
859.335795
 20
37.606609
 30
0.0
 11
981.179971
 21
37.606609
 31
0.0
  0
LINE
  5
2B8
  8
0
  6
DASHED2
 10
0.0
 20
537.825746
 30
0.0
 11
233.542567
 21
537.825746
 31
0.0
  0
LINE
  5
2B9
  8
0
  6
DASHED2
 10
0.0
 20
124.613335
 30
0.0
 11
201.28823
 21
124.613335
 31
0.0
  0
LINE
  5
2BA
  8
0
  6
DASHED2
 10
0.0
 20
124.613335
 30
0.0
 11
0.0
 21
537.825746
 31
0.0
  0
LINE
  5
2BB
  8
0
 10
888.882958
 20
295.497682
 30
0.0
 11
888.882958
 21
314.259079
 31
0.0
  0
LINE
  5
2BC
  8
0
 10
834.585906
 20
295.497682
 30
0.0
 11
834.585906
 21
314.259079
 31
0.0
  0
LINE
  5
2BD
  8
0
 62
     1
 10
472.397072
 20
238.61169
 30
0.0
 11
472.397072
 21
516.428674
 31
0.0
  0
LINE
  5
2BE
  8
0
 10
451.0
 20
124.613335
 30
0.0
 11
451.0
 21
537.825746
 31
0.0
  0
LINE
  5
2BF
  8
0
 62
     1
 10
663.243337
 20
238.61169
 30
0.0
 11
663.243337
 21
516.428674
 31
0.0
  0
LINE
  5
2C0
  8
0
 10
684.64041
 20
124.613335
 30
0.0
 11
684.64041
 21
537.825746
 31
0.0
  0
LINE
  5
2C1
  8
0
 10
451.0
 20
124.613335
 30
0.0
 11
684.64041
 21
124.613335
 31
0.0
  0
LINE
  5
2C2
  8
0
 62
     1
 10
472.397072
 20
238.61169
 30
0.0
 11
663.243337
 21
238.61169
 31
0.0
  0
LINE
  5
2C3
  8
0
  6
DASHED2
 10
201.28823
 20
37.606609
 30
0.0
 11
423.28823
 21
37.606609
 31
0.0
  0
LINE
  5
2C4
  8
0
  6
DASHED2
 10
201.28823
 20
124.613335
 30
0.0
 11
201.28823
 21
37.606609
 31
0.0
  0
LINE
  5
2C5
  8
0
  6
DASHED2
 10
423.28823
 20
0.000002
 30
0.0
 11
508.49162
 21
0.000002
 31
0.0
  0
LINE
  5
2C6
  8
0
  6
DASHED2
 10
423.28823
 20
37.606609
 30
0.0
 11
423.28823
 21
0.000002
 31
0.0
  0
LINE
  5
2C7
  8
0
  6
DASHED2
 10
508.49162
 20
0.000002
 30
0.0
 11
508.49162
 21
37.606609
 31
0.0
  0
LINE
  5
2C8
  8
0
 10
496.913328
 20
184.975697
 30
0.0
 11
496.913328
 21
219.414471
 31
0.0
  0
LINE
  5
2C9
  8
0
 10
520.478009
 20
184.975697
 30
0.0
 11
520.478009
 21
219.414471
 31
0.0
  0
LINE
  5
2CA
  8
0
 10
496.913328
 20
184.975697
 30
0.0
 11
520.478009
 21
184.975697
 31
0.0
  0
LINE
  5
2CB
  8
0
 10
496.913328
 20
219.414471
 30
0.0
 11
520.478009
 21
219.414471
 31
0.0
  0
LINE
  5
2CC
  8
0
 10
652.28823
 20
37.606609
 30
0.0
 11
774.132405
 21
37.606609
 31
0.0
  0
LINE
  5
2CD
  8
0
 62
     1
 10
684.64041
 20
157.544207
 30
0.0
 11
774.132405
 21
157.544207
 31
0.0
  0
LINE
  5
2CE
  8
0
 10
684.64041
 20
259.820272
 30
0.0
 11
819.233961
 21
259.820272
 31
0.0
  0
LINE
  5
2CF
  8
0
 10
733.708411
 20
238.837749
 30
0.0
 11
922.664018
 21
238.837749
 31
0.0
  0
LINE
  5
2D0
  8
0
 10
922.981028
 20
235.354306
 30
0.0
 11
733.708411
 21
235.354306
 31
0.0
  0
LINE
  5
2D1
  8
0
 10
717.495338
 20
215.001822
 30
0.0
 11
871.007376
 21
215.001822
 31
0.0
  0
LINE
  5
2D2
  8
0
 10
717.495338
 20
224.16275
 30
0.0
 11
871.007376
 21
224.16275
 31
0.0
  0
LINE
  5
2D3
  8
0
 10
652.28823
 20
124.613335
 30
0.0
 11
652.28823
 21
37.606609
 31
0.0
  0
LINE
  5
2D4
  8
0
 10
717.495338
 20
224.16275
 30
0.0
 11
717.495338
 21
215.001822
 31
0.0
  0
LINE
  5
2D5
  8
0
 10
741.866812
 20
238.837749
 30
0.0
 11
741.866812
 21
259.820272
 31
0.0
  0
LINE
  5
2D6
  8
0
 10
732.696298
 20
224.16275
 30
0.0
 11
732.696298
 21
259.820272
 31
0.0
  0
LINE
  5
2D7
  8
0
 10
725.634784
 20
208.007167
 30
0.0
 11
748.928326
 21
208.007167
 31
0.0
  0
LINE
  5
2D8
  8
0
 10
733.708411
 20
235.354306
 30
0.0
 11
733.708411
 21
238.837749
 31
0.0
  0
LINE
  5
2D9
  8
0
 10
732.696298
 20
208.007167
 30
0.0
 11
732.696298
 21
215.001822
 31
0.0
  0
LINE
  5
2DA
  8
0
 10
725.634784
 20
208.007167
 30
0.0
 11
725.634784
 21
215.001822
 31
0.0
  0
LINE
  5
2DB
  8
0
 10
741.866812
 20
208.007167
 30
0.0
 11
741.866812
 21
215.001822
 31
0.0
  0
LINE
  5
2DC
  8
0
 10
741.866812
 20
224.16275
 30
0.0
 11
741.866812
 21
235.354306
 31
0.0
  0
LINE
  5
2DD
  8
0
 10
748.928326
 20
208.007167
 30
0.0
 11
748.928326
 21
215.001822
 31
0.0
  0
LINE
  5
2DE
  8
0
 10
859.335795
 20
0.000002
 30
0.0
 11
859.335795
 21
215.001822
 31
0.0
  0
LINE
  5
2DF
  8
0
 10
774.132405
 20
215.001822
 30
0.0
 11
774.132405
 21
0.000002
 31
0.0
  0
LINE
  5
2E0
  8
0
 10
774.132405
 20
0.000002
 30
0.0
 11
859.335795
 21
0.000002
 31
0.0
  0
LINE
  5
2E1
  8
0
 10
834.585906
 20
295.497682
 30
0.0
 11
888.882958
 21
295.497682
 31
0.0
  0
LINE
  5
2E2
  8
0
 10
819.233961
 20
271.417128
 30
0.0
 11
819.233961
 21
251.081329
 31
0.0
  0
LINE
  5
2E3
  8
0
 10
871.007376
 20
215.001822
 30
0.0
 11
871.007376
 21
224.16275
 31
0.0
  0
ARC
  5
2E4
  8
0
 10
926.899544
 20
235.672395
 30
0.0
 40
3.281862
 50
180.0
 51
0.0
  0
LINE
  5
2E5
  8
0
 10
923.617682
 20
235.672395
 30
0.0
 11
923.617682
 21
251.081329
 31
0.0
  0
LINE
  5
2E6
  8
0
 10
930.181406
 20
235.672395
 30
0.0
 11
930.181406
 21
251.081329
 31
0.0
  0
LINE
  5
2E7
  8
0
 10
451.0
 20
537.825746
 30
0.0
 11
684.64041
 21
537.825746
 31
0.0
  0
LINE
  5
2E8
  8
0
 62
     1
 10
472.397072
 20
516.428674
 30
0.0
 11
663.243337
 21
516.428674
 31
0.0
  0
LINE
  5
2E9
  8
0
  6
DASHED2
 10
272.001785
 20
755.000002
 30
0.0
 11
494.001785
 21
755.000002
 31
0.0
  0
LINE
  5
2EA
  8
0
  6
DASHED2
 10
234.042567
 20
538.325746
 30
0.0
 11
234.042567
 21
648.117038
 31
0.0
  0
LINE
  5
2EB
  8
0
  6
DASHED2
 10
233.542567
 20
537.825746
 30
0.0
 11
234.042567
 21
538.325746
 31
0.0
  0
ARC
  5
2EC
  8
0
  6
DASHED2
 10
652.340583
 20
559.741584
 30
0.0
 40
427.531813
 50
152.824932
 51
168.070332
  0
ARC
  5
2ED
  8
0
  6
DASHED2
 10
113.662987
 20
559.741584
 30
0.0
 40
427.531813
 50
11.929668
 51
27.175068
  0
LINE
  5
2EE
  8
0
  6
DASHED2
 10
531.961003
 20
581.24367
 30
0.0
 11
531.961003
 21
648.117038
 31
0.0
  0
LINE
  5
2EF
  8
0
 10
723.001785
 20
755.000002
 30
0.0
 11
910.466415
 21
755.000002
 31
0.0
  0
LINE
  5
2F0
  8
0
 10
685.042567
 20
648.117038
 30
0.0
 11
948.425633
 21
648.117038
 31
0.0
  0
LINE
  5
2F1
  8
0
 10
693.022789
 20
470.000002
 30
0.0
 11
693.022789
 21
635.338459
 31
0.0
  0
LINE
  5
2F2
  8
0
 62
     8
 10
751.876946
 20
470.000002
 30
0.0
 11
751.876946
 21
632.139869
 31
0.0
  0
LINE
  5
2F3
  8
0
 62
     8
 10
713.970878
 20
470.000002
 30
0.0
 11
713.970878
 21
648.117038
 31
0.0
  0
LINE
  5
2F4
  8
0
 62
     8
 10
732.923912
 20
470.000002
 30
0.0
 11
732.923912
 21
632.139869
 31
0.0
  0
ARC
  5
2F5
  8
0
 10
1103.340583
 20
559.741584
 30
0.0
 40
427.531813
 50
152.824932
 51
168.070332
  0
LINE
  5
2F6
  8
0
 10
693.022789
 20
635.338459
 30
0.0
 11
713.970878
 21
648.117038
 31
0.0
  0
LINE
  5
2F7
  8
0
 62
     8
 10
919.497322
 20
470.000002
 30
0.0
 11
919.497322
 21
648.117038
 31
0.0
  0
LINE
  5
2F8
  8
0
 62
     8
 10
903.501216
 20
470.000002
 30
0.0
 11
903.501216
 21
632.139869
 31
0.0
  0
LINE
  5
2F9
  8
0
 62
     8
 10
884.548182
 20
470.000002
 30
0.0
 11
884.548182
 21
632.139869
 31
0.0
  0
LINE
  5
2FA
  8
0
 62
     8
 10
865.595148
 20
470.000002
 30
0.0
 11
865.595148
 21
632.139869
 31
0.0
  0
LINE
  5
2FB
  8
0
 62
     8
 10
846.642115
 20
470.000002
 30
0.0
 11
846.642115
 21
632.139869
 31
0.0
  0
LINE
  5
2FC
  8
0
 62
     8
 10
827.689081
 20
470.000002
 30
0.0
 11
827.689081
 21
632.139869
 31
0.0
  0
LINE
  5
2FD
  8
0
 62
     8
 10
808.736047
 20
470.000002
 30
0.0
 11
808.736047
 21
632.139869
 31
0.0
  0
LINE
  5
2FE
  8
0
 62
     8
 10
789.783013
 20
470.000002
 30
0.0
 11
789.783013
 21
632.139869
 31
0.0
  0
LINE
  5
2FF
  8
0
 62
     8
 10
770.82998
 20
470.000002
 30
0.0
 11
770.82998
 21
632.139869
 31
0.0
  0
LINE
  5
300
  8
0
 10
940.445411
 20
470.000002
 30
0.0
 11
940.445411
 21
635.338459
 31
0.0
  0
LINE
  5
301
  8
0
 10
834.585906
 20
422.502322
 30
0.0
 11
888.882958
 21
422.502322
 31
0.0
  0
LINE
  5
302
  8
0
 10
834.585906
 20
403.740925
 30
0.0
 11
888.882958
 21
403.740925
 31
0.0
  0
LINE
  5
303
  8
0
 10
834.585906
 20
314.259079
 30
0.0
 11
888.882958
 21
314.259079
 31
0.0
  0
LINE
  5
304
  8
0
 10
834.585906
 20
403.740925
 30
0.0
 11
834.585906
 21
422.502322
 31
0.0
  0
LINE
  5
305
  8
0
 10
888.882958
 20
403.740925
 30
0.0
 11
888.882958
 21
422.502322
 31
0.0
  0
ARC
  5
306
  8
0
 10
530.127617
 20
559.741584
 30
0.0
 40
427.531813
 50
11.929668
 51
27.175068
  0
LINE
  5
307
  8
0
 10
940.445411
 20
635.338459
 30
0.0
 11
919.497322
 21
648.117038
 31
0.0
  0
LINE
  5
308
  8
0
 10
1591.572459
 20
489.000002
 30
0.0
 11
1893.06446
 21
489.000002
 31
0.0
  0
LINE
  5
309
  8
0
 10
1591.572459
 20
229.000002
 30
0.0
 11
1893.06446
 21
229.000002
 31
0.0
  0
LINE
  5
30A
  8
0
 62
     8
 10
1576.656461
 20
233.138583
 30
0.0
 11
1576.656461
 21
484.861421
 31
0.0
  0
LINE
  5
30B
  8
0
 62
     8
 10
1591.572459
 20
229.000002
 30
0.0
 11
1591.572459
 21
489.000002
 31
0.0
  0
LINE
  5
30C
  8
0
 10
1512.046038
 20
494.702213
 30
0.0
 11
1512.046038
 21
223.297791
 31
0.0
  0
LINE
  5
30D
  8
0
 10
1502.954407
 20
223.297791
 30
0.0
 11
1502.954407
 21
494.702213
 31
0.0
  0
LINE
  5
30E
  8
0
 62
     8
 10
1527.9694
 20
211.851371
 30
0.0
 11
1527.9694
 21
506.148634
 31
0.0
  0
LINE
  5
30F
  8
0
 10
1541.0
 20
211.851371
 30
0.0
 11
1541.0
 21
506.148634
 31
0.0
  0
LINE
  5
310
  8
0
 10
1271.238625
 20
223.297791
 30
0.0
 11
1271.238625
 21
494.702213
 31
0.0
  0
LINE
  5
311
  8
0
 10
1280.330256
 20
494.702213
 30
0.0
 11
1280.330256
 21
223.297791
 31
0.0
  0
LINE
  5
312
  8
0
 10
1289.421888
 20
223.297791
 30
0.0
 11
1289.421888
 21
494.702213
 31
0.0
  0
LINE
  5
313
  8
0
 10
1215.957484
 20
234.640116
 30
0.0
 11
1215.957484
 21
315.441396
 31
0.0
  0
LINE
  5
314
  8
0
 10
1241.404351
 20
234.640116
 30
0.0
 11
1241.404351
 21
315.441396
 31
0.0
  0
LINE
  5
315
  8
0
 10
1289.421888
 20
271.417128
 30
0.0
 11
1502.954407
 21
271.417128
 31
0.0
  0
LINE
  5
316
  8
0
 10
1289.421888
 20
251.081329
 30
0.0
 11
1502.954407
 21
251.081329
 31
0.0
  0
LINE
  5
317
  8
0
 10
981.179971
 20
232.390534
 30
0.0
 11
981.179971
 21
37.606609
 31
0.0
  0
LINE
  5
318
  8
0
 10
981.179971
 20
251.081329
 30
0.0
 11
981.179971
 21
238.954257
 31
0.0
  0
ARC
  5
319
  8
0
 10
993.136862
 20
235.672395
 30
0.0
 40
3.281862
 50
270.0
 51
90.0
  0
LINE
  5
31A
  8
0
 10
1241.404351
 20
251.081329
 30
0.0
 11
1271.238625
 21
251.081329
 31
0.0
  0
LINE
  5
31B
  8
0
 10
1241.404351
 20
271.417128
 30
0.0
 11
1271.238625
 21
271.417128
 31
0.0
  0
LINE
  5
31C
  8
0
 10
1241.404351
 20
251.081329
 30
0.0
 11
1271.238625
 21
251.081329
 31
0.0
  0
LINE
  5
31D
  8
0
 10
1215.957484
 20
234.640116
 30
0.0
 11
1241.404351
 21
234.640116
 31
0.0
  0
LINE
  5
31E
  8
0
 10
1289.421888
 20
223.297791
 30
0.0
 11
1280.330256
 21
223.297791
 31
0.0
  0
LINE
  5
31F
  8
0
 10
1271.238625
 20
223.297791
 30
0.0
 11
1280.330256
 21
223.297791
 31
0.0
  0
LINE
  5
320
  8
0
 10
1541.0
 20
233.138583
 30
0.0
 11
1591.572459
 21
233.138583
 31
0.0
  0
LINE
  5
321
  8
0
 10
1502.954407
 20
223.297791
 30
0.0
 11
1512.046038
 21
223.297791
 31
0.0
  0
LINE
  5
322
  8
0
 10
1527.9694
 20
211.851371
 30
0.0
 11
1541.0
 21
211.851371
 31
0.0
  0
LINE
  5
323
  8
0
 10
1527.9694
 20
223.297791
 30
0.0
 11
1512.046038
 21
223.297791
 31
0.0
  0
LINE
  5
324
  8
0
 10
1289.421888
 20
459.656408
 30
0.0
 11
1502.954407
 21
459.656408
 31
0.0
  0
LINE
  5
325
  8
0
 10
1289.421888
 20
494.702213
 30
0.0
 11
1280.330256
 21
494.702213
 31
0.0
  0
LINE
  5
326
  8
0
 10
1271.238625
 20
494.702213
 30
0.0
 11
1280.330256
 21
494.702213
 31
0.0
  0
LINE
  5
327
  8
0
 10
1541.0
 20
484.861421
 30
0.0
 11
1591.572459
 21
484.861421
 31
0.0
  0
CIRCLE
  5
328
  8
0
 10
1511.851534
 20
511.509851
 30
0.0
 40
11.881849
  0
LINE
  5
329
  8
0
 10
1502.954407
 20
494.702213
 30
0.0
 11
1512.046038
 21
494.702213
 31
0.0
  0
CIRCLE
  5
32A
  8
0
 10
1511.851534
 20
511.509851
 30
0.0
 40
17.044647
  0
LINE
  5
32B
  8
0
 10
1527.9694
 20
506.148634
 30
0.0
 11
1541.0
 21
506.148634
 31
0.0
  0
LINE
  5
32C
  8
0
 10
1527.9694
 20
494.702213
 30
0.0
 11
1512.046038
 21
494.702213
 31
0.0
  0
LINE
  5
32D
  8
0
 10
1893.06446
 20
489.000002
 30
0.0
 11
1893.06446
 21
229.000002
 31
0.0
  0
LINE
  5
32E
  8
0
 62
     8
 10
1883.397654
 20
489.000002
 30
0.0
 11
1883.397654
 21
229.000002
 31
0.0
  0
LINE
  5
32F
  8
0
 10
1932.0
 20
244.686534
 30
0.0
 11
1932.0
 21
473.31347
 31
0.0
  0
LINE
  5
330
  8
0
 10
1932.0
 20
244.686534
 30
0.0
 11
1893.06446
 21
229.000002
 31
0.0
  0
LINE
  5
331
  8
0
 10
1932.0
 20
473.31347
 30
0.0
 11
1893.06446
 21
489.000002
 31
0.0
  0
ENDBLK
  5
333
  8
0
  0
BLOCK
  8
0
  2
A$C28C87214
 70
     0
 10
0.0
 20
0.0
 30
0.0
  3
A$C28C87214
  1

  0
LINE
  5
337
  8
0
 10
846.004464
 20
535.45865
 30
0.0
 11
1229.205028
 21
535.45865
 31
0.0
  0
LINE
  5
338
  8
0
 10
818.871481
 20
552.845758
 30
0.0
 11
1229.205028
 21
552.845758
 31
0.0
  0
ARC
  5
339
  8
0
 10
967.253696
 20
376.096157
 30
0.0
 40
12.757903
 50
89.007685
 51
191.333922
  0
ARC
  5
33A
  8
0
 10
839.212094
 20
286.170462
 30
0.0
 40
144.87836
 50
331.473776
 51
37.113212
  0
LINE
  5
33B
  8
0
 10
990.299775
 20
346.022321
 30
0.0
 11
874.927617
 21
459.249068
 31
0.0
  0
LINE
  5
33C
  8
0
 10
995.911758
 20
348.550485
 30
0.0
 11
880.5396
 21
461.777231
 31
0.0
  0
LINE
  5
33D
  8
0
 10
800.701856
 20
558.566745
 30
0.0
 11
1271.238625
 21
558.566745
 31
0.0
  0
LINE
  5
33E
  8
0
 62
     1
 10
652.28823
 20
18.361112
 30
0.0
 11
981.179971
 21
18.361112
 31
0.0
  0
LINE
  5
33F
  8
0
 10
652.28823
 20
-0.000001
 30
0.0
 11
981.179971
 21
-0.000001
 31
0.0
  0
LINE
  5
340
  8
0
 62
     1
 10
652.28823
 20
122.363872
 30
0.0
 11
981.179971
 21
122.363872
 31
0.0
  0
LINE
  5
341
  8
0
 10
981.179971
 20
134.599961
 30
0.0
 11
938.565241
 21
333.122038
 31
0.0
  0
POLYLINE
  5
342
  8
0
  6
DASHED2
 66
     1
 10
0.0
 20
0.0
 30
0.0
  0
VERTEX
  5
3CC
  8
0
  6
DASHED2
 10
132.14439
 20
290.062946
 30
0.0
 42
0.168112
  0
VERTEX
  5
3CD
  8
0
  6
DASHED2
 10
201.28823
 20
150.268273
 30
0.0
  0
SEQEND
  5
3CE
  8
0
  6
DASHED2
  0
LINE
  5
343
  8
0
 10
652.28823
 20
134.599961
 30
0.0
 11
694.902959
 21
333.122038
 31
0.0
  0
POLYLINE
  5
344
  8
0
 66
     1
 10
0.0
 20
0.0
 30
0.0
  0
VERTEX
  5
3CF
  8
0
 10
717.495338
 20
535.541755
 30
0.0
 42
0.520672
  0
VERTEX
  5
3D0
  8
0
 10
652.28823
 20
150.268273
 30
0.0
  0
SEQEND
  5
3D1
  8
0
  0
LINE
  5
345
  8
0
  6
DASHED2
 10
201.28823
 20
-0.000001
 30
0.0
 11
614.787608
 21
-0.000001
 31
0.0
  0
LINE
  5
346
  8
0
  6
DASHED2
 10
201.28823
 20
150.268273
 30
0.0
 11
201.28823
 21
-0.000001
 31
0.0
  0
LINE
  5
347
  8
0
 10
652.28823
 20
134.599961
 30
0.0
 11
652.28823
 21
-0.000001
 31
0.0
  0
LINE
  5
348
  8
0
  6
DASHED2
 10
139.778616
 20
618.209903
 30
0.0
 11
227.483192
 21
570.320945
 31
0.0
  0
LINE
  5
349
  8
0
  6
DASHED2
 10
139.778616
 20
618.209903
 30
0.0
 11
0.0
 21
362.217187
 31
0.0
  0
LINE
  5
34A
  8
0
  6
DASHED2
 10
132.14439
 20
290.062946
 30
0.0
 11
0.0
 21
362.217187
 31
0.0
  0
LINE
  5
34B
  8
0
 10
590.778616
 20
618.209903
 30
0.0
 11
451.0
 21
362.217187
 31
0.0
  0
LINE
  5
34C
  8
0
 10
678.483192
 20
570.320945
 30
0.0
 11
538.704576
 21
314.328229
 31
0.0
  0
POLYLINE
  5
34D
  8
0
  6
DASHED2
 66
     1
 10
0.0
 20
0.0
 30
0.0
  0
VERTEX
  5
3D2
  8
0
  6
DASHED2
 10
514.150276
 20
558.566745
 30
0.0
  0
VERTEX
  5
3D3
  8
0
  6
DASHED2
 10
309.101551
 20
558.566745
 30
0.0
 42
-0.065507
  0
VERTEX
  5
3D4
  8
0
  6
DASHED2
 10
233.64041
 20
568.372826
 30
0.0
  0
SEQEND
  5
3D5
  8
0
  6
DASHED2
  0
LINE
  5
34E
  8
0
 10
538.704576
 20
314.328229
 30
0.0
 11
451.0
 21
362.217187
 31
0.0
  0
ARC
  5
34F
  8
0
 10
816.7341
 20
297.419769
 30
0.0
 40
126.954633
 50
16.333073
 51
163.666927
  0
ARC
  5
350
  8
0
 62
     1
 10
820.086792
 20
293.279744
 30
0.0
 40
156.697898
 50
104.188366
 51
196.721692
  0
ARC
  5
351
  8
0
 62
     1
 10
773.458011
 20
304.243278
 30
0.0
 40
9.190675
 50
114.205309
 51
245.794691
  0
LINE
  5
352
  8
0
 10
717.495338
 20
465.223812
 30
0.0
 11
781.678488
 21
465.223812
 31
0.0
  0
POLYLINE
  5
353
  8
0
 66
     1
 10
0.0
 20
0.0
 30
0.0
  0
VERTEX
  5
3D6
  8
0
 10
851.90302
 20
558.566745
 30
0.0
  0
VERTEX
  5
3D7
  8
0
 10
819.730301
 20
558.566745
 30
0.0
 42
0.094706
  0
VERTEX
  5
3D8
  8
0
 10
731.782587
 20
541.757697
 30
0.0
  0
SEQEND
  5
3D9
  8
0
  0
POLYLINE
  5
354
  8
0
 66
     1
 10
0.0
 20
0.0
 30
0.0
  0
VERTEX
  5
3DA
  8
0
 10
800.701856
 20
558.566745
 30
0.0
  0
VERTEX
  5
3DB
  8
0
 10
760.101551
 20
558.566745
 30
0.0
 42
-0.065507
  0
VERTEX
  5
3DC
  8
0
 10
684.64041
 20
568.372826
 30
0.0
  0
SEQEND
  5
3DD
  8
0
  0
LINE
  5
355
  8
0
 10
717.495338
 20
541.757697
 30
0.0
 11
797.213433
 21
541.757697
 31
0.0
  0
LINE
  5
356
  8
0
 10
678.483192
 20
570.320945
 30
0.0
 11
590.778616
 21
618.209903
 31
0.0
  0
LINE
  5
357
  8
0
 10
684.64041
 20
568.372826
 30
0.0
 11
621.298237
 21
452.366992
 31
0.0
  0
POLYLINE
  5
358
  8
0
 66
     1
 10
0.0
 20
0.0
 30
0.0
 70
     1
  0
VERTEX
  5
3DE
  8
0
 10
739.387473
 20
521.628858
 30
0.0
  0
VERTEX
  5
3DF
  8
0
 10
744.362393
 20
530.245672
 30
0.0
  0
VERTEX
  5
3E0
  8
0
 10
739.387473
 20
538.862485
 30
0.0
  0
VERTEX
  5
3E1
  8
0
 10
729.437634
 20
538.862485
 30
0.0
  0
VERTEX
  5
3E2
  8
0
 10
724.462715
 20
530.245672
 30
0.0
  0
VERTEX
  5
3E3
  8
0
 10
729.437634
 20
521.628858
 30
0.0
  0
SEQEND
  5
3E4
  8
0
  0
LINE
  5
359
  8
0
 10
717.495338
 20
541.757697
 30
0.0
 11
717.495338
 21
465.223812
 31
0.0
  0
POLYLINE
  5
35A
  8
0
 66
     1
 10
0.0
 20
0.0
 30
0.0
 70
     1
  0
VERTEX
  5
3E5
  8
0
 10
739.387473
 20
467.612614
 30
0.0
  0
VERTEX
  5
3E6
  8
0
 10
744.362393
 20
476.229427
 30
0.0
  0
VERTEX
  5
3E7
  8
0
 10
739.387473
 20
484.84624
 30
0.0
  0
VERTEX
  5
3E8
  8
0
 10
729.437634
 20
484.84624
 30
0.0
  0
VERTEX
  5
3E9
  8
0
 10
724.462715
 20
476.229427
 30
0.0
  0
VERTEX
  5
3EA
  8
0
 10
729.437634
 20
467.612614
 30
0.0
  0
SEQEND
  5
3EB
  8
0
  0
ARC
  5
35B
  8
0
 62
     1
 10
789.066512
 20
250.240639
 30
0.0
 40
206.552697
 50
36.667888
 51
71.523182
  0
ARC
  5
35C
  8
0
 62
     1
 10
860.010189
 20
304.243278
 30
0.0
 40
9.190675
 50
294.205309
 51
65.794691
  0
ARC
  5
35D
  8
0
 62
     1
 10
816.7341
 20
284.789413
 30
0.0
 40
9.190675
 50
245.794691
 51
294.205309
  0
LINE
  5
35E
  8
0
 62
     1
 10
769.689765
 20
295.860628
 30
0.0
 11
812.965854
 21
276.406763
 31
0.0
  0
LINE
  5
35F
  8
0
 62
     1
 10
863.778435
 20
295.860628
 30
0.0
 11
820.502346
 21
276.406763
 31
0.0
  0
ARC
  5
360
  8
0
 62
     1
 10
816.7341
 20
323.697144
 30
0.0
 40
9.190675
 50
65.794691
 51
114.205309
  0
LINE
  5
361
  8
0
 62
     8
 10
792.999789
 20
338.708313
 30
0.0
 11
840.468411
 21
338.708313
 31
0.0
  0
LINE
  5
362
  8
0
 62
     1
 10
769.689765
 20
312.625929
 30
0.0
 11
812.965854
 21
332.079794
 31
0.0
  0
LINE
  5
363
  8
0
 62
     8
 10
792.999789
 20
323.104465
 30
0.0
 11
792.999789
 21
338.708313
 31
0.0
  0
LINE
  5
364
  8
0
 62
     1
 10
863.778435
 20
312.625929
 30
0.0
 11
820.502346
 21
332.079794
 31
0.0
  0
LINE
  5
365
  8
0
 62
     8
 10
840.468411
 20
323.104465
 30
0.0
 11
840.468411
 21
338.708313
 31
0.0
  0
LINE
  5
366
  8
0
 10
902.319242
 20
535.45865
 30
0.0
 11
846.004464
 21
535.45865
 31
0.0
  0
LINE
  5
367
  8
0
 10
854.527387
 20
425.457364
 30
0.0
 11
854.527387
 21
532.649561
 31
0.0
  0
LINE
  5
368
  8
0
 10
781.678488
 20
532.649561
 30
0.0
 11
781.678488
 21
425.457364
 31
0.0
  0
LINE
  5
369
  8
0
 10
781.678488
 20
425.457364
 30
0.0
 11
854.527387
 21
425.457364
 31
0.0
  0
ARC
  5
36A
  8
0
 10
818.102937
 20
511.451384
 30
0.0
 40
36.808206
 50
35.163315
 51
144.836685
  0
LINE
  5
36B
  8
0
 10
854.527387
 20
532.649561
 30
0.0
 11
781.678488
 21
532.649561
 31
0.0
  0
LINE
  5
36C
  8
0
 10
800.701856
 20
558.566745
 30
0.0
 11
809.934643
 21
558.566745
 31
0.0
  0
CIRCLE
  5
36D
  8
0
 10
840.815879
 20
575.611392
 30
0.0
 40
11.881849
  0
CIRCLE
  5
36E
  8
0
 10
840.815879
 20
575.611392
 30
0.0
 40
17.044647
  0
LINE
  5
36F
  8
0
 10
818.871481
 20
548.251566
 30
0.0
 11
818.871481
 21
552.845758
 31
0.0
  0
LINE
  5
370
  8
0
 10
880.5396
 20
461.777231
 30
0.0
 11
880.5396
 21
535.45865
 31
0.0
  0
LINE
  5
371
  8
0
 10
874.927617
 20
459.249068
 30
0.0
 11
874.927617
 21
535.45865
 31
0.0
  0
LINE
  5
372
  8
0
 10
995.911758
 20
90.055655
 30
0.0
 11
995.911758
 21
348.550485
 31
0.0
  0
LINE
  5
373
  8
0
 10
990.299775
 20
95.667639
 30
0.0
 11
990.299775
 21
346.022321
 31
0.0
  0
LINE
  5
374
  8
0
 10
981.179971
 20
134.599961
 30
0.0
 11
981.179971
 21
-0.000001
 31
0.0
  0
LINE
  5
375
  8
0
 10
981.179971
 20
90.055655
 30
0.0
 11
995.911758
 21
90.055655
 31
0.0
  0
LINE
  5
376
  8
0
 10
981.179971
 20
95.667639
 30
0.0
 11
990.299775
 21
95.667639
 31
0.0
  0
LINE
  5
377
  8
0
 10
1591.572459
 20
336.999999
 30
0.0
 11
1893.06446
 21
336.999999
 31
0.0
  0
LINE
  5
378
  8
0
 10
1591.572459
 20
596.999999
 30
0.0
 11
1893.06446
 21
596.999999
 31
0.0
  0
LINE
  5
379
  8
0
 10
1289.421888
 20
567.656405
 30
0.0
 11
1502.954407
 21
567.656405
 31
0.0
  0
LINE
  5
37A
  8
0
 10
1305.440901
 20
308.773396
 30
0.0
 11
1487.393982
 21
308.773396
 31
0.0
  0
LINE
  5
37B
  8
0
 10
1305.440901
 20
328.684144
 30
0.0
 11
1487.393982
 21
328.684144
 31
0.0
  0
LINE
  5
37C
  8
0
 62
     8
 10
1305.440901
 20
365.248434
 30
0.0
 11
1396.417441
 21
393.330713
 31
0.0
  0
LINE
  5
37D
  8
0
 10
967.474641
 20
388.852146
 30
0.0
 11
1271.238625
 21
388.852146
 31
0.0
  0
LINE
  5
37E
  8
0
 10
1289.421888
 20
331.297788
 30
0.0
 11
1289.421888
 21
602.70221
 31
0.0
  0
LINE
  5
37F
  8
0
 10
1280.330256
 20
602.70221
 30
0.0
 11
1280.330256
 21
331.297788
 31
0.0
  0
LINE
  5
380
  8
0
 10
1271.238625
 20
331.297788
 30
0.0
 11
1271.238625
 21
602.70221
 31
0.0
  0
LINE
  5
381
  8
0
 10
1271.238625
 20
347.11904
 30
0.0
 11
1243.570181
 21
388.852146
 31
0.0
  0
LINE
  5
382
  8
0
 10
1305.440901
 20
365.248434
 30
0.0
 11
1305.440901
 21
308.773396
 31
0.0
  0
LINE
  5
383
  8
0
 10
1289.421888
 20
331.297788
 30
0.0
 11
1280.330256
 21
331.297788
 31
0.0
  0
LINE
  5
384
  8
0
 10
1271.238625
 20
331.297788
 30
0.0
 11
1280.330256
 21
331.297788
 31
0.0
  0
LINE
  5
385
  8
0
 10
1289.421888
 20
365.248434
 30
0.0
 11
1305.440901
 21
365.248434
 31
0.0
  0
LINE
  5
386
  8
0
 10
1245.730321
 20
552.845758
 30
0.0
 11
1271.238625
 21
552.845758
 31
0.0
  0
LINE
  5
387
  8
0
 10
1245.730321
 20
535.45865
 30
0.0
 11
1271.238625
 21
535.45865
 31
0.0
  0
LINE
  5
388
  8
0
 10
1229.205028
 20
512.655864
 30
0.0
 11
1229.205028
 21
555.769947
 31
0.0
  0
LINE
  5
389
  8
0
 10
1245.730321
 20
512.655864
 30
0.0
 11
1245.730321
 21
555.769947
 31
0.0
  0
LINE
  5
38A
  8
0
 10
1229.205028
 20
555.769947
 30
0.0
 11
1245.730321
 21
555.769947
 31
0.0
  0
LINE
  5
38B
  8
0
 10
1289.421888
 20
602.70221
 30
0.0
 11
1280.330256
 21
602.70221
 31
0.0
  0
LINE
  5
38C
  8
0
 10
1271.238625
 20
602.70221
 30
0.0
 11
1280.330256
 21
602.70221
 31
0.0
  0
LINE
  5
38D
  8
0
 10
1541.0
 20
592.861418
 30
0.0
 11
1591.572459
 21
592.861418
 31
0.0
  0
LINE
  5
38E
  8
0
 10
1541.0
 20
341.13858
 30
0.0
 11
1591.572459
 21
341.13858
 31
0.0
  0
LINE
  5
38F
  8
0
 62
     8
 10
1527.9694
 20
319.851368
 30
0.0
 11
1527.9694
 21
614.14863
 31
0.0
  0
LINE
  5
390
  8
0
 10
1502.954407
 20
331.297788
 30
0.0
 11
1502.954407
 21
602.70221
 31
0.0
  0
LINE
  5
391
  8
0
 10
1512.046038
 20
602.70221
 30
0.0
 11
1512.046038
 21
331.297788
 31
0.0
  0
LINE
  5
392
  8
0
 10
1541.0
 20
319.851368
 30
0.0
 11
1541.0
 21
614.14863
 31
0.0
  0
LINE
  5
393
  8
0
 62
     8
 10
1396.417441
 20
393.330713
 30
0.0
 11
1487.393982
 21
365.248434
 31
0.0
  0
LINE
  5
394
  8
0
 10
1502.954407
 20
331.297788
 30
0.0
 11
1512.046038
 21
331.297788
 31
0.0
  0
LINE
  5
395
  8
0
 10
1487.393982
 20
365.248434
 30
0.0
 11
1487.393982
 21
308.773396
 31
0.0
  0
LINE
  5
396
  8
0
 10
1487.393982
 20
365.248434
 30
0.0
 11
1502.954407
 21
365.248434
 31
0.0
  0
LINE
  5
397
  8
0
 10
1527.9694
 20
319.851368
 30
0.0
 11
1541.0
 21
319.851368
 31
0.0
  0
LINE
  5
398
  8
0
 10
1527.9694
 20
331.297788
 30
0.0
 11
1512.046038
 21
331.297788
 31
0.0
  0
LINE
  5
399
  8
0
 10
1502.954407
 20
602.70221
 30
0.0
 11
1512.046038
 21
602.70221
 31
0.0
  0
CIRCLE
  5
39A
  8
0
 10
1511.851534
 20
619.509848
 30
0.0
 40
11.881849
  0
CIRCLE
  5
39B
  8
0
 10
1511.851534
 20
619.509848
 30
0.0
 40
17.044647
  0
LINE
  5
39C
  8
0
 10
1527.9694
 20
614.14863
 30
0.0
 11
1541.0
 21
614.14863
 31
0.0
  0
LINE
  5
39D
  8
0
 10
1527.9694
 20
602.70221
 30
0.0
 11
1512.046038
 21
602.70221
 31
0.0
  0
LINE
  5
39E
  8
0
 62
     8
 10
1576.656461
 20
341.13858
 30
0.0
 11
1576.656461
 21
592.861418
 31
0.0
  0
LINE
  5
39F
  8
0
 62
     8
 10
1591.572459
 20
336.999999
 30
0.0
 11
1591.572459
 21
596.999999
 31
0.0
  0
LINE
  5
3A0
  8
0
 10
1893.06446
 20
596.999999
 30
0.0
 11
1893.06446
 21
336.999999
 31
0.0
  0
LINE
  5
3A1
  8
0
 62
     8
 10
1883.397654
 20
596.999999
 30
0.0
 11
1883.397654
 21
336.999999
 31
0.0
  0
LINE
  5
3A2
  8
0
 10
1932.0
 20
352.686531
 30
0.0
 11
1932.0
 21
581.313467
 31
0.0
  0
LINE
  5
3A3
  8
0
 10
1932.0
 20
352.686531
 30
0.0
 11
1893.06446
 21
336.999999
 31
0.0
  0
LINE
  5
3A4
  8
0
 10
1932.0
 20
581.313467
 30
0.0
 11
1893.06446
 21
596.999999
 31
0.0
  0
ENDBLK
  5
3A6
  8
0
  0
ENDSEC
  0
SECTION
  2
ENTITIES
  0
INSERT
  5
1AB
  8
0
  2
A$C4B960F43
 10
-396.14868
 20
120.503949
 30
0.0
  0
TEXT
  8
0
  40
30
  5
3F0
  62
5
  72
0
  71
0
 10
-127.577
 20
157.223
 30
0.000000
  1
3753831
  0
INSERT
  5
1AD
  8
0
  2
A$C6F1D32CD
 10
682.549506
 20
475.624995
 30
0.0
  0
TEXT
  8
0
  40
30
  5
3F1
  62
5
  72
0
  71
0
 10
793.053
 20
157.223
 30
0.000000
  1
GAS 8 P/M t.c.
  0
TEXT
  8
0
  40
30
  5
3F2
  62
5
  72
0
  71
0
 10
1967.86
 20
157.223
 30
0.000000
  1
1:1
  0
INSERT
  5
334
  8
0
  2
A$C4C616CB4
 10
-95.6625
 20
2035.961048
 30
0.0
  0
INSERT
  5
3A7
  8
0
  2
A$C28C87214
 10
-95.6625
 20
1257.449518
 30
0.0
  0
ENDSEC
  0
EOF
