  0
SECTION
  2
HEADER
  9
$ACADVER
  1
AC1009
  9
$INSBASE
 10
0.0
 20
0.0
 30
0.0
  9
$EXTMIN
 10
-0.623665
 20
-0.543538
 30
0.0
  9
$EXTMAX
 10
1996.815626
 20
1385.879102
 30
0.0
  9
$LIMMIN
 10
0.0
 20
0.0
  9
$LIMMAX
 10
420.0
 20
297.0
  9
$ORTHOMODE
 70
     0
  9
$REGENMODE
 70
     1
  9
$FILLMODE
 70
     1
  9
$QTEXTMODE
 70
     0
  9
$MIRRTEXT
 70
     1
  9
$DRAGMODE
 70
     2
  9
$LTSCALE
 40
4.0
  9
$OSMODE
 70
     7
  9
$ATTMODE
 70
     2
  9
$TEXTSIZE
 40
7.263256
  9
$TRACEWID
 40
1.0
  9
$TEXTSTYLE
  7
SIMPLEX
  9
$CLAYER
  8
LAYER1
  9
$CELTYPE
  6
BYLAYER
  9
$CECOLOR
 62
   256
  9
$DIMSCALE
 40
0.0
  9
$DIMASZ
 40
2.5
  9
$DIMEXO
 40
3.0
  9
$DIMDLI
 40
3.0
  9
$DIMRND
 40
0.0
  9
$DIMDLE
 40
0.0
  9
$DIMEXE
 40
1.25
  9
$DIMTP
 40
0.0
  9
$DIMTM
 40
0.0
  9
$DIMTXT
 40
2.5
  9
$DIMCEN
 40
2.5
  9
$DIMTSZ
 40
0.0
  9
$DIMTOL
 70
     0
  9
$DIMLIM
 70
     0
  9
$DIMTIH
 70
     0
  9
$DIMTOH
 70
     0
  9
$DIMSE1
 70
     0
  9
$DIMSE2
 70
     0
  9
$DIMTAD
 70
     1
  9
$DIMZIN
 70
     8
  9
$DIMBLK
  1

  9
$DIMASO
 70
     1
  9
$DIMSHO
 70
     1
  9
$DIMPOST
  1

  9
$DIMAPOST
  1

  9
$DIMALT
 70
     0
  9
$DIMALTD
 70
     4
  9
$DIMALTF
 40
0.0394
  9
$DIMLFAC
 40
10.0
  9
$DIMTOFL
 70
     1
  9
$DIMTVP
 40
0.0
  9
$DIMTIX
 70
     0
  9
$DIMSOXD
 70
     0
  9
$DIMSAH
 70
     0
  9
$DIMBLK1
  1

  9
$DIMBLK2
  1

  9
$DIMSTYLE
  2
STANDARD
  9
$DIMCLRD
 70
   136
  9
$DIMCLRE
 70
   147
  9
$DIMCLRT
 70
     2
  9
$DIMTFAC
 40
1.0
  9
$DIMGAP
 40
0.625
  9
$LUNITS
 70
     2
  9
$LUPREC
 70
     4
  9
$SKETCHINC
 40
1.0
  9
$FILLETRAD
 40
5.0
  9
$AUNITS
 70
     0
  9
$AUPREC
 70
     0
  9
$MENU
  1
.
  9
$ELEVATION
 40
0.0
  9
$PELEVATION
 40
0.0
  9
$THICKNESS
 40
0.0
  9
$LIMCHECK
 70
     0
  9
$BLIPMODE
 70
     0
  9
$CHAMFERA
 40
0.0
  9
$CHAMFERB
 40
0.0
  9
$SKPOLY
 70
     0
  9
$TDCREATE
 40
2451192.52327
  9
$TDUPDATE
 40
2451225.4775
  9
$TDINDWG
 40
1.075582
  9
$TDUSRTIMER
 40
1.075582
  9
$USRTIMER
 70
     1
  9
$ANGBASE
 50
0.0
  9
$ANGDIR
 70
     0
  9
$PDMODE
 70
     0
  9
$PDSIZE
 40
0.0
  9
$PLINEWID
 40
10.0
  9
$COORDS
 70
     1
  9
$SPLFRAME
 70
     0
  9
$SPLINETYPE
 70
     6
  9
$SPLINESEGS
 70
     8
  9
$ATTDIA
 70
     0
  9
$ATTREQ
 70
     1
  9
$HANDLING
 70
     1
  9
$HANDSEED
  5
12D
  9
$SURFTAB1
 70
     6
  9
$SURFTAB2
 70
     6
  9
$SURFTYPE
 70
     6
  9
$SURFU
 70
     6
  9
$SURFV
 70
     6
  9
$UCSNAME
  2

  9
$UCSORG
 10
0.0
 20
0.0
 30
0.0
  9
$UCSXDIR
 10
1.0
 20
0.0
 30
0.0
  9
$UCSYDIR
 10
0.0
 20
1.0
 30
0.0
  9
$PUCSNAME
  2

  9
$PUCSORG
 10
0.0
 20
0.0
 30
0.0
  9
$PUCSXDIR
 10
1.0
 20
0.0
 30
0.0
  9
$PUCSYDIR
 10
0.0
 20
1.0
 30
0.0
  9
$USERI1
 70
     0
  9
$USERI2
 70
     0
  9
$USERI3
 70
     0
  9
$USERI4
 70
     0
  9
$USERI5
 70
     0
  9
$USERR1
 40
0.0
  9
$USERR2
 40
0.0
  9
$USERR3
 40
0.0
  9
$USERR4
 40
0.0
  9
$USERR5
 40
0.0
  9
$WORLDVIEW
 70
     1
  9
$SHADEDGE
 70
     3
  9
$SHADEDIF
 70
    70
  9
$TILEMODE
 70
     1
  9
$MAXACTVP
 70
    48
  9
$PLIMCHECK
 70
     0
  9
$PEXTMIN
 10
1.000000E+020
 20
1.000000E+020
 30
1.000000E+020
  9
$PEXTMAX
 10
-1.000000E+020
 20
-1.000000E+020
 30
-1.000000E+020
  9
$PLIMMIN
 10
0.0
 20
0.0
  9
$PLIMMAX
 10
420.0
 20
297.0
  9
$UNITMODE
 70
     0
  9
$VISRETAIN
 70
     1
  9
$PLINEGEN
 70
     0
  9
$PSLTSCALE
 70
     1
  0
ENDSEC
  0
SECTION
  2
TABLES
  0
TABLE
  2
VPORT
 70
     3
  0
VPORT
  2
*ACTIVE
 70
     0
 10
0.0
 20
0.0
 11
1.0
 21
1.0
 12
998.09598
 22
692.667782
 13
0.0
 23
0.0
 14
10.0
 24
10.0
 15
10.0
 25
10.0
 16
0.0
 26
0.0
 36
1.0
 17
0.0
 27
0.0
 37
0.0
 40
1407.21898
 41
1.756892
 42
50.0
 43
0.0
 44
0.0
 50
0.0
 51
0.0
 71
     0
 72
   100
 73
     1
 74
     0
 75
     0
 76
     0
 77
     0
 78
     0
  0
ENDTAB
  0
TABLE
  2
LTYPE
 70
     1
  0
LTYPE
  2
CONTINUOUS
 70
     0
  3
Solid line
 72
    65
 73
     0
 40
0.0
  0
ENDTAB
  0
TABLE
  2
LAYER
 70
     3
  0
LAYER
  2
0
 70
     0
 62
     7
  6
CONTINUOUS
  0
LAYER
  2
CONTORNO_PAGINA
 70
     0
 62
     7
  6
CONTINUOUS
  0
LAYER
  2
LAYER1
 70
     0
 62
     7
  6
CONTINUOUS
  0
ENDTAB
  0
TABLE
  2
STYLE
 70
     4
  0
STYLE
  2
STANDARD
 70
     0
 40
0.0
 41
1.0
 50
0.0
 71
     0
 42
2.5
  3
txt
  4

  0
STYLE
  2
RIELLO
 70
     0
 40
0.0
 41
1.0
 50
0.0
 71
     0
 42
2.5
  3
txt
  4

  0
STYLE
  2
SIMPLEX
 70
     0
 40
0.0
 41
1.0
 50
0.0
 71
     0
 42
7.263256
  3
simplex.shx
  4

  0
STYLE
  2
SIMPLEX_INCLINATO
 70
     0
 40
2.0
 41
1.0
 50
15.0
 71
     0
 42
89.952478
  3
simplex.shx
  4

  0
ENDTAB
  0
TABLE
  2
VIEW
 70
     0
  0
ENDTAB
  0
TABLE
  2
UCS
 70
     0
  0
ENDTAB
  0
TABLE
  2
APPID
 70
     1
  0
APPID
  2
ACAD
 70
     0
  0
ENDTAB
  0
TABLE
  2
DIMSTYLE
 70
     1
  0
DIMSTYLE
  2
STANDARD
 70
     0
  3

  4

  5

  6

  7

 40
1.0
 41
0.18
 42
0.0625
 43
0.38
 44
0.18
 45
0.0
 46
0.0
 47
0.0
 48
0.0
140
0.18
141
0.09
142
0.0
143
25.4
144
1.0
145
0.0
146
1.0
147
0.09
 71
     0
 72
     0
 73
     1
 74
     1
 75
     0
 76
     0
 77
     0
 78
     0
170
     0
171
     2
172
     0
173
     0
174
     0
175
     0
176
     0
177
     0
178
     0
  0
ENDTAB
  0
ENDSEC
  0
SECTION
  2
BLOCKS
  0
BLOCK
  8
0
  2
$MODEL_SPACE
 70
     0
 10
0.0
 20
0.0
 30
0.0
  3
$MODEL_SPACE
  1

  0
ENDBLK
  5
6
  8
0
  0
BLOCK
 67
     1
  8
0
  2
$PAPER_SPACE
 70
     0
 10
0.0
 20
0.0
 30
0.0
  3
$PAPER_SPACE
  1

  0
ENDBLK
  5
9
 67
     1
  8
0
  0
BLOCK
  8
0
  2
MARCHIO-RIELLO
 70
     0
 10
0.0
 20
0.0
 30
0.0
  3
MARCHIO-RIELLO
  1

  0
INSERT
  5
B3
  8
LAYER1
  6
CONTINUOUS
 62
    10
  2
*X5
 10
0.0
 20
0.0
 30
0.0
1001
ACAD
1000
HATCH
1002
{
1070
    19
1000
ANSI31
1040
0.25
1040
0.0
1000
R14_HATCH_DATA
1000
B3
1011
1.0
1021
8.191526E+149
1031
8.191526E+149
1021
0.0
1031
0.0
1011
0.0
1021
8.191526E+149
1031
8.191526E+149
1021
1.0
1031
0.0
1011
0.0
1021
8.191526E+149
1031
8.191526E+149
1021
0.0
1031
1.0
1040
0.0
1010
0.0
1020
0.0
1030
1.0
1000
ANSI31
1070
     0
1070
     0
1071
        1
1071
        7
1070
     0
1070
     1
1071
        3
1040
10.214226
1040
10.214226
1040
-10.214226
1040
10.214226
1040
10.214226
1040
-10.214226
1071
        0
1070
     0
1070
     1
1040
0.0
1040
0.25
1070
     0
1070
     1
1040
0.785398
1040
-13465.958677
1040
655.059315
1040
-0.561266
1040
0.561266
1070
     0
1040
0.139432
1071
        1
1040
5.798261
1040
2.006984
1040
0.0
1002
}
  0
CIRCLE
  5
B4
  8
LAYER1
 62
     8
 10
0.0
 20
0.0
 30
0.0
 40
16.325822
  0
CIRCLE
  5
B5
  8
LAYER1
 62
     8
 10
0.0
 20
0.0
 30
0.0
 40
17.907649
  0
CIRCLE
  5
B6
  8
LAYER1
 62
     8
 10
0.0
 20
0.0
 30
0.0
 40
19.162959
  0
CIRCLE
  5
B7
  8
LAYER1
 62
     7
 10
0.0
 20
0.0
 30
0.0
 40
14.445097
  0
TEXT
  5
B8
  8
LAYER1
 62
     1
 10
24.356865
 20
-10.919464
 30
0.0
 40
22.0
  1
RIELLO
 41
0.736808
  7
RIELLO
 72
     5
 11
108.208232
 21
-10.919464
 31
0.0
  0
LINE
  5
BA
  8
LAYER1
 10
-14.445097
 20
0.0
 30
0.0
 11
-14.445097
 21
0.0
 31
0.0
  0
ENDBLK
  5
BC
  8
0
  0
BLOCK
  8
0
  2
A$C7E3F515B
 70
     0
 10
0.0
 20
0.0
 30
0.0
  3
A$C7E3F515B
  1

  0
LINE
  5
71
  8
LAYER1
 62
     1
 10
9.999991
 20
163.747737
 30
0.0
 11
57.308116
 21
163.747737
 31
0.0
  0
LINE
  5
72
  8
LAYER1
 62
     1
 10
9.999991
 20
156.247737
 30
0.0
 11
73.09586
 21
156.247737
 31
0.0
  0
LINE
  5
73
  8
LAYER1
 62
     1
 10
9.999991
 20
201.717693
 30
0.0
 11
57.308116
 21
201.717693
 31
0.0
  0
LINE
  5
74
  8
LAYER1
 62
     1
 10
9.999991
 20
209.217693
 30
0.0
 11
73.09586
 21
209.217693
 31
0.0
  0
LINE
  5
75
  8
LAYER1
 62
     1
 10
9.999991
 20
254.499996
 30
0.0
 11
294.999991
 21
254.499996
 31
0.0
  0
LINE
  5
76
  8
LAYER1
 10
9.999991
 20
261.999996
 30
0.0
 11
294.999991
 21
261.999996
 31
0.0
  0
LINE
  5
77
  8
LAYER1
 62
     1
 10
9.999991
 20
7.499996
 30
0.0
 11
294.999991
 21
7.499996
 31
0.0
  0
LINE
  5
78
  8
LAYER1
 10
9.999991
 20
-0.000004
 30
0.0
 11
294.999991
 21
-0.000004
 31
0.0
  0
LINE
  5
79
  8
LAYER1
 62
     1
 10
7.499991
 20
211.717693
 30
0.0
 11
7.499991
 21
251.999996
 31
0.0
  0
LINE
  5
7A
  8
LAYER1
 10
-0.000009
 20
211.717693
 30
0.0
 11
-0.000009
 21
251.999996
 31
0.0
  0
LINE
  5
7B
  8
LAYER1
 62
     1
 10
7.499991
 20
9.999996
 30
0.0
 11
7.499991
 21
153.747737
 31
0.0
  0
LINE
  5
7C
  8
LAYER1
 10
-0.000009
 20
9.999996
 30
0.0
 11
-0.000009
 21
153.747737
 31
0.0
  0
ARC
  5
7D
  8
LAYER1
 62
     1
 10
9.999991
 20
9.999996
 30
0.0
 40
2.5
 50
180.0
 51
270.0
  0
ARC
  5
7E
  8
LAYER1
 10
9.999991
 20
9.999996
 30
0.0
 40
10.0
 50
180.0
 51
270.0
  0
LINE
  5
7F
  8
LAYER1
 10
-0.000009
 20
211.717693
 30
0.0
 11
-0.000009
 21
153.747737
 31
0.0
  0
ARC
  5
80
  8
LAYER1
 62
     1
 10
9.999991
 20
153.747737
 30
0.0
 40
2.5
 50
90.0
 51
180.0
  0
ARC
  5
81
  8
LAYER1
 62
     1
 10
9.999991
 20
153.747737
 30
0.0
 40
10.0
 50
90.0
 51
180.0
  0
ARC
  5
82
  8
LAYER1
 62
     1
 10
9.999991
 20
211.717693
 30
0.0
 40
10.0
 50
180.0
 51
270.0
  0
ARC
  5
83
  8
LAYER1
 62
     1
 10
9.999991
 20
211.717693
 30
0.0
 40
2.5
 50
180.0
 51
270.0
  0
ARC
  5
84
  8
LAYER1
 62
     1
 10
9.999991
 20
251.999996
 30
0.0
 40
2.5
 50
90.0
 51
180.0
  0
ARC
  5
85
  8
LAYER1
 10
9.999991
 20
251.999996
 30
0.0
 40
10.0
 50
90.0
 51
180.0
  0
LINE
  5
86
  8
LAYER1
 10
304.999991
 20
211.717693
 30
0.0
 11
304.999991
 21
251.999996
 31
0.0
  0
LINE
  5
87
  8
LAYER1
 62
     1
 10
297.499991
 20
211.717693
 30
0.0
 11
297.499991
 21
251.999996
 31
0.0
  0
CIRCLE
  5
88
  8
LAYER1
 10
142.453394
 20
232.695915
 30
0.0
 40
10.848652
  0
CIRCLE
  5
89
  8
LAYER1
 62
    10
 10
142.453394
 20
232.695915
 30
0.0
 40
7.969445
1001
ACAD
1000
ASC_BOUNDS
1002
{
1070
    19
1005
8A
1002
}
  0
INSERT
  5
8A
  8
LAYER1
  6
CONTINUOUS
 62
    10
  2
*X4
 10
0.0
 20
0.0
 30
0.0
1001
ACAD
1000
HATCH
1002
{
1070
    19
1000
ANSI31
1040
0.5
1040
0.0
1000
ASC_BOUNDS
1070
     1
1070
     1
1070
     1
1005
89
1000
ASC_SEEDPOINT
1011
142.290038
1021
8.191526E+149
1031
8.191526E+149
1021
232.412116
1031
0.0
1000
R14_HATCH_DATA
1000
8A
1011
1.0
1021
8.191526E+149
1031
8.191526E+149
1021
0.0
1031
0.0
1011
0.0
1021
8.191526E+149
1031
8.191526E+149
1021
1.0
1031
0.0
1011
0.0
1021
8.191526E+149
1031
8.191526E+149
1021
0.0
1031
1.0
1040
0.0
1010
0.0
1020
0.0
1030
1.0
1000
ANSI31
1070
     0
1070
     1
1071
        1
1071
        7
1070
     1
1070
     1
1071
        2
1040
150.422839
1040
232.695915
1040
1.000001
1040
134.483949
1040
232.695915
1040
1.000001
1071
        1
1005
89
1070
     0
1070
     1
1040
0.0
1040
0.5
1070
     0
1070
     1
1040
0.785398
1040
-13251.495204
1040
572.643886
1040
-1.122532
1040
1.122532
1070
     0
1040
0.339324
1071
        1
1040
142.290038
1040
232.412116
1040
0.0
1002
}
  0
LINE
  5
8B
  8
LAYER1
 10
304.999991
 20
9.999996
 30
0.0
 11
304.999991
 21
153.747737
 31
0.0
  0
LINE
  5
8C
  8
LAYER1
 62
     1
 10
297.499991
 20
9.999996
 30
0.0
 11
297.499991
 21
153.747737
 31
0.0
  0
LINE
  5
8D
  8
LAYER1
 62
    10
 10
259.499991
 20
138.13673
 30
0.0
 11
259.499991
 21
24.818163
 31
0.0
  0
LINE
  5
8E
  8
LAYER1
 62
    10
 10
274.499991
 20
138.13673
 30
0.0
 11
274.499991
 21
24.818163
 31
0.0
  0
LINE
  5
8F
  8
LAYER1
 62
    10
 10
267.499991
 20
138.13673
 30
0.0
 11
267.499991
 21
24.818163
 31
0.0
  0
LINE
  5
90
  8
LAYER1
 62
    10
 10
237.499991
 20
138.13673
 30
0.0
 11
237.499991
 21
24.818163
 31
0.0
  0
LINE
  5
91
  8
LAYER1
 62
    10
 10
244.499991
 20
138.13673
 30
0.0
 11
244.499991
 21
24.818163
 31
0.0
  0
LINE
  5
92
  8
LAYER1
 62
    10
 10
207.499991
 20
138.13673
 30
0.0
 11
207.499991
 21
24.818163
 31
0.0
  0
LINE
  5
93
  8
LAYER1
 62
    10
 10
214.499991
 20
138.13673
 30
0.0
 11
214.499991
 21
24.818163
 31
0.0
  0
LINE
  5
94
  8
LAYER1
 62
    10
 10
222.499991
 20
138.13673
 30
0.0
 11
222.499991
 21
24.818163
 31
0.0
  0
LINE
  5
95
  8
LAYER1
 62
    10
 10
229.499991
 20
138.13673
 30
0.0
 11
229.499991
 21
24.818163
 31
0.0
  0
LINE
  5
96
  8
LAYER1
 62
    10
 10
79.499991
 20
138.13673
 30
0.0
 11
79.499991
 21
24.818163
 31
0.0
  0
LINE
  5
97
  8
LAYER1
 62
    10
 10
72.499991
 20
138.13673
 30
0.0
 11
72.499991
 21
24.818163
 31
0.0
  0
LINE
  5
98
  8
LAYER1
 62
    10
 10
64.499991
 20
138.13673
 30
0.0
 11
64.499991
 21
24.818163
 31
0.0
  0
LINE
  5
99
  8
LAYER1
 62
    10
 10
57.499991
 20
138.13673
 30
0.0
 11
57.499991
 21
24.818163
 31
0.0
  0
LINE
  5
9A
  8
LAYER1
 62
    10
 10
27.499991
 20
138.13673
 30
0.0
 11
27.499991
 21
24.818163
 31
0.0
  0
LINE
  5
9B
  8
LAYER1
 62
    10
 10
34.499991
 20
138.13673
 30
0.0
 11
34.499991
 21
24.818163
 31
0.0
  0
LINE
  5
9C
  8
LAYER1
 62
    10
 10
42.499991
 20
138.13673
 30
0.0
 11
42.499991
 21
24.818163
 31
0.0
  0
LINE
  5
9D
  8
LAYER1
 62
    10
 10
49.499991
 20
138.13673
 30
0.0
 11
49.499991
 21
24.818163
 31
0.0
  0
LINE
  5
9E
  8
LAYER1
 62
    10
 10
199.499991
 20
138.13673
 30
0.0
 11
199.499991
 21
24.818163
 31
0.0
  0
LINE
  5
9F
  8
LAYER1
 62
    10
 10
192.499991
 20
138.13673
 30
0.0
 11
192.499991
 21
24.818163
 31
0.0
  0
LINE
  5
A0
  8
LAYER1
 62
    10
 10
109.499991
 20
138.13673
 30
0.0
 11
109.499991
 21
24.818163
 31
0.0
  0
LINE
  5
A1
  8
LAYER1
 62
    10
 10
102.499991
 20
138.13673
 30
0.0
 11
102.499991
 21
24.818163
 31
0.0
  0
LINE
  5
A2
  8
LAYER1
 62
    10
 10
94.499991
 20
138.13673
 30
0.0
 11
94.499991
 21
24.818163
 31
0.0
  0
LINE
  5
A3
  8
LAYER1
 62
    10
 10
87.499991
 20
138.13673
 30
0.0
 11
87.499991
 21
24.818163
 31
0.0
  0
LINE
  5
A4
  8
LAYER1
 62
    10
 10
169.499991
 20
138.13673
 30
0.0
 11
169.499991
 21
24.818163
 31
0.0
  0
LINE
  5
A5
  8
LAYER1
 62
    10
 10
162.499991
 20
138.13673
 30
0.0
 11
162.499991
 21
24.818163
 31
0.0
  0
LINE
  5
A6
  8
LAYER1
 62
    10
 10
177.499991
 20
138.13673
 30
0.0
 11
177.499991
 21
24.818163
 31
0.0
  0
LINE
  5
A7
  8
LAYER1
 62
    10
 10
184.499991
 20
138.13673
 30
0.0
 11
184.499991
 21
24.818163
 31
0.0
  0
LINE
  5
A8
  8
LAYER1
 62
    10
 10
154.499991
 20
138.13673
 30
0.0
 11
154.499991
 21
24.818163
 31
0.0
  0
LINE
  5
A9
  8
LAYER1
 62
    10
 10
147.499991
 20
138.13673
 30
0.0
 11
147.499991
 21
24.818163
 31
0.0
  0
LINE
  5
AA
  8
LAYER1
 62
    10
 10
117.499991
 20
138.13673
 30
0.0
 11
117.499991
 21
24.818163
 31
0.0
  0
LINE
  5
AB
  8
LAYER1
 62
    10
 10
124.499991
 20
138.13673
 30
0.0
 11
124.499991
 21
24.818163
 31
0.0
  0
LINE
  5
AC
  8
LAYER1
 62
    10
 10
132.499991
 20
138.13673
 30
0.0
 11
132.499991
 21
24.818163
 31
0.0
  0
LINE
  5
AD
  8
LAYER1
 62
    10
 10
139.499991
 20
138.13673
 30
0.0
 11
139.499991
 21
24.818163
 31
0.0
  0
LINE
  5
AE
  8
LAYER1
 62
    10
 10
252.499991
 20
138.13673
 30
0.0
 11
252.499991
 21
24.818163
 31
0.0
  0
ARC
  5
AF
  8
LAYER1
 10
294.999991
 20
9.999996
 30
0.0
 40
10.0
 50
270.0
 51
0.0
  0
ARC
  5
B0
  8
LAYER1
 62
     1
 10
294.999991
 20
9.999996
 30
0.0
 40
2.5
 50
270.0
 51
0.0
  0
INSERT
  5
B1
  8
LAYER1
  2
MARCHIO-RIELLO
 10
157.643332
 20
183.542572
 30
0.0
 41
0.765
 42
0.765
 43
0.765
  0
LINE
  5
BD
  8
LAYER1
 62
     8
 10
155.983641
 20
163.747737
 30
0.0
 11
235.157211
 21
163.747737
 31
0.0
  0
LINE
  5
BE
  8
LAYER1
 62
     8
 10
155.983641
 20
201.717693
 30
0.0
 11
235.157211
 21
201.717693
 31
0.0
  0
LINE
  5
BF
  8
LAYER1
 62
     1
 10
155.983641
 20
209.217693
 30
0.0
 11
294.999991
 21
209.217693
 31
0.0
  0
LINE
  5
C0
  8
LAYER1
 62
     1
 10
155.983641
 20
156.247737
 30
0.0
 11
294.999991
 21
156.247737
 31
0.0
  0
TEXT
  5
C1
  8
LAYER1
 62
     1
 10
46.714315
 20
174.934945
 30
0.0
 40
16.83
  1
40
 41
1.105554
  7
RIELLO
 72
     5
 11
80.298614
 21
174.934945
 31
0.0
  0
ARC
  5
C2
  8
LAYER1
 62
     8
 10
155.983641
 20
182.732715
 30
0.0
 40
18.984978
 50
90.0
 51
270.0
  0
ARC
  5
C3
  8
LAYER1
 62
     1
 10
155.983641
 20
182.732715
 30
0.0
 40
26.484978
 50
90.0
 51
270.0
  0
ARC
  5
C4
  8
LAYER1
 62
     8
 10
57.308116
 20
182.732715
 30
0.0
 40
18.984978
 50
90.0
 51
270.0
  0
LINE
  5
C5
  8
LAYER1
 62
     8
 10
57.308116
 20
163.747737
 30
0.0
 11
73.09586
 21
163.747737
 31
0.0
  0
LINE
  5
C6
  8
LAYER1
 62
     8
 10
57.308116
 20
201.717693
 30
0.0
 11
73.09586
 21
201.717693
 31
0.0
  0
ARC
  5
C7
  8
LAYER1
 62
     8
 10
73.09586
 20
182.732715
 30
0.0
 40
18.984978
 50
270.0
 51
90.0
  0
ARC
  5
C8
  8
LAYER1
 62
     1
 10
73.09586
 20
182.732715
 30
0.0
 40
26.484978
 50
270.0
 51
90.0
  0
ARC
  5
C9
  8
LAYER1
 62
     1
 10
294.999991
 20
153.747737
 30
0.0
 40
2.5
 50
360.0
 51
90.0
  0
ARC
  5
CA
  8
LAYER1
 62
     1
 10
294.999991
 20
153.747737
 30
0.0
 40
10.0
 50
360.0
 51
90.0
  0
ARC
  5
CB
  8
LAYER1
 62
     1
 10
294.999991
 20
211.717693
 30
0.0
 40
2.5
 50
270.0
 51
0.0
  0
ARC
  5
CC
  8
LAYER1
 62
     1
 10
294.999991
 20
211.717693
 30
0.0
 40
10.0
 50
270.0
 51
0.0
  0
LINE
  5
CD
  8
LAYER1
 10
304.999991
 20
211.717693
 30
0.0
 11
304.999991
 21
153.747737
 31
0.0
  0
ARC
  5
CE
  8
LAYER1
 62
     8
 10
235.157211
 20
182.732715
 30
0.0
 40
18.984978
 50
270.0
 51
90.0
  0
LINE
  5
CF
  8
LAYER1
 62
     1
 10
235.157211
 20
201.717693
 30
0.0
 11
294.999991
 21
201.717693
 31
0.0
  0
LINE
  5
D0
  8
LAYER1
 62
     1
 10
235.157211
 20
163.747737
 30
0.0
 11
294.999991
 21
163.747737
 31
0.0
  0
LINE
  5
D1
  8
LAYER1
 10
160.488416
 20
281.805578
 30
0.0
 11
165.216432
 21
261.999996
 31
0.0
  0
LINE
  5
D2
  8
LAYER1
 10
144.511566
 20
281.805578
 30
0.0
 11
139.783551
 21
261.999996
 31
0.0
  0
CIRCLE
  5
D3
  8
LAYER1
 10
152.217944
 20
273.770829
 30
0.0
 40
4.651482
  0
LINE
  5
D4
  8
LAYER1
 10
142.147559
 20
271.902787
 30
0.0
 11
99.893784
 21
271.902787
 31
0.0
  0
LINE
  5
D5
  8
LAYER1
 10
99.893784
 20
271.902787
 30
0.0
 11
99.893784
 21
261.999996
 31
0.0
  0
LINE
  5
D6
  8
LAYER1
 10
162.852424
 20
271.902787
 30
0.0
 11
205.106198
 21
271.902787
 31
0.0
  0
LINE
  5
D7
  8
LAYER1
 10
205.106198
 20
271.902787
 30
0.0
 11
205.106198
 21
261.999996
 31
0.0
  0
LINE
  5
D8
  8
LAYER1
 10
160.488416
 20
281.805578
 30
0.0
 11
152.499991
 21
281.805578
 31
0.0
  0
LINE
  5
D9
  8
LAYER1
 10
144.511566
 20
281.805578
 30
0.0
 11
152.499991
 21
281.805578
 31
0.0
  0
ARC
  5
DA
  8
LAYER1
 62
     1
 10
294.999991
 20
251.999996
 30
0.0
 40
2.5
 50
360.0
 51
90.0
  0
ARC
  5
DB
  8
LAYER1
 10
294.999991
 20
251.999996
 30
0.0
 40
10.0
 50
360.0
 51
90.0
  0
ENDBLK
  5
DD
  8
0
  0
BLOCK
  8
0
  2
A$C484036D9
 70
     0
 10
0.0
 20
0.0
 30
0.0
  3
A$C484036D9
  1

  0
LINE
  5
3D
  8
LAYER1
 10
346.999989
 20
270.822368
 30
0.0
 11
334.096307
 21
270.822368
 31
0.0
  0
LINE
  5
3E
  8
LAYER1
 10
346.999989
 20
137.177624
 30
0.0
 11
334.096307
 21
137.177624
 31
0.0
  0
LINE
  5
3F
  8
LAYER1
 10
-0.000011
 20
246.999996
 30
0.0
 11
-0.000011
 21
14.999996
 31
0.0
  0
LINE
  5
40
  8
LAYER1
 62
     1
 10
31.502971
 20
261.999996
 30
0.0
 11
31.502971
 21
-0.000004
 31
0.0
  0
LINE
  5
41
  8
LAYER1
 10
251.145245
 20
256.999996
 30
0.0
 11
251.145245
 21
4.999996
 31
0.0
  0
LINE
  5
42
  8
LAYER1
 62
     8
 10
237.088036
 20
261.999996
 30
0.0
 11
237.088036
 21
-0.000004
 31
0.0
  0
LINE
  5
43
  8
LAYER1
 10
334.096307
 20
270.822368
 30
0.0
 11
334.096307
 21
137.177624
 31
0.0
  0
LINE
  5
44
  8
LAYER1
 10
246.145245
 20
-0.000004
 30
0.0
 11
14.999989
 21
-0.000004
 31
0.0
  0
ARC
  5
45
  8
LAYER1
 10
14.999989
 20
14.999996
 30
0.0
 40
15.0
 50
180.0
 51
270.0
  0
ARC
  5
46
  8
LAYER1
 10
246.145245
 20
4.999996
 30
0.0
 40
5.0
 50
270.0
 51
360.0
  0
LINE
  5
47
  8
LAYER1
 10
287.296841
 20
134.610434
 30
0.0
 11
282.5016
 21
151.499996
 31
0.0
  0
LINE
  5
48
  8
LAYER1
 10
297.944711
 20
134.610434
 30
0.0
 11
287.296841
 21
134.610434
 31
0.0
  0
LINE
  5
49
  8
LAYER1
 10
297.944711
 20
134.610434
 30
0.0
 11
302.739952
 21
151.499996
 31
0.0
  0
POLYLINE
  5
4A
  8
LAYER1
 66
     1
 10
0.0
 20
0.0
 30
0.0
 70
     1
  0
VERTEX
  5
E8
  8
LAYER1
 10
288.033331
 20
132.534736
 30
0.0
  0
VERTEX
  5
E9
  8
LAYER1
 10
297.208221
 20
132.534736
 30
0.0
  0
VERTEX
  5
EA
  8
LAYER1
 10
297.208221
 20
126.94632
 30
0.0
  0
VERTEX
  5
EB
  8
LAYER1
 10
288.033331
 20
126.94632
 30
0.0
  0
SEQEND
  5
EC
  8
LAYER1
  0
POLYLINE
  5
4B
  8
LAYER1
 66
     1
 10
0.0
 20
0.0
 30
0.0
 70
     1
  0
VERTEX
  5
ED
  8
LAYER1
 10
281.545374
 20
125.253829
 30
0.0
  0
VERTEX
  5
EE
  8
LAYER1
 10
303.696178
 20
125.253829
 30
0.0
  0
VERTEX
  5
EF
  8
LAYER1
 10
303.696178
 20
117.490721
 30
0.0
  0
VERTEX
  5
F0
  8
LAYER1
 10
281.545374
 20
117.490721
 30
0.0
  0
SEQEND
  5
F1
  8
LAYER1
  0
LINE
  5
4C
  8
LAYER1
 10
283.228525
 20
117.490721
 30
0.0
 11
283.228525
 21
109.098733
 31
0.0
  0
LINE
  5
4D
  8
LAYER1
 10
302.013027
 20
117.490721
 30
0.0
 11
302.013027
 21
109.098733
 31
0.0
  0
CIRCLE
  5
4E
  8
LAYER1
 62
     8
 10
292.620776
 20
96.76846
 30
0.0
 40
12.5
  0
LINE
  5
4F
  8
LAYER1
 10
334.096307
 20
151.499996
 30
0.0
 11
251.145245
 21
151.499996
 31
0.0
  0
CIRCLE
  5
50
  8
LAYER1
 10
292.620776
 20
96.76846
 30
0.0
 40
15.5
  0
LINE
  5
51
  8
LAYER1
 10
246.145245
 20
261.999996
 30
0.0
 11
14.999989
 21
261.999996
 31
0.0
  0
ARC
  5
52
  8
LAYER1
 10
14.999989
 20
246.999996
 30
0.0
 40
15.0
 50
90.0
 51
180.0
  0
LINE
  5
53
  8
LAYER1
 10
258.333745
 20
256.499996
 30
0.0
 11
258.333745
 21
281.805578
 31
0.0
  0
LINE
  5
54
  8
LAYER1
 10
267.563433
 20
256.499996
 30
0.0
 11
267.563433
 21
281.805578
 31
0.0
  0
ARC
  5
55
  8
LAYER1
 10
246.145245
 20
256.999996
 30
0.0
 40
5.0
 50
360.0
 51
90.0
  0
LINE
  5
56
  8
LAYER1
 10
258.333745
 20
256.499996
 30
0.0
 11
251.145245
 21
256.499996
 31
0.0
  0
LINE
  5
57
  8
LAYER1
 10
258.333745
 20
281.805578
 30
0.0
 11
267.563433
 21
281.805578
 31
0.0
  0
LINE
  5
58
  8
LAYER1
 10
334.096307
 20
256.499996
 30
0.0
 11
267.563433
 21
256.499996
 31
0.0
  0
LINE
  5
59
  8
LAYER1
 10
456.999989
 20
256.499996
 30
0.0
 11
456.999989
 21
151.499996
 31
0.0
  0
LINE
  5
5A
  8
LAYER1
 62
     8
 10
404.588153
 20
256.499996
 30
0.0
 11
404.588153
 21
151.499996
 31
0.0
  0
LINE
  5
5B
  8
LAYER1
 10
346.999989
 20
270.822368
 30
0.0
 11
346.999989
 21
137.177624
 31
0.0
  0
LINE
  5
5C
  8
LAYER1
 10
346.999989
 20
151.499996
 30
0.0
 11
456.999989
 21
151.499996
 31
0.0
  0
LINE
  5
5D
  8
LAYER1
 10
346.999989
 20
256.499996
 30
0.0
 11
456.999989
 21
256.499996
 31
0.0
  0
ENDBLK
  5
5F
  8
0
  0
BLOCK
  8
0
  2
A$C45674E1D
 70
     0
 10
0.0
 20
0.0
 30
0.0
  3
A$C45674E1D
  1

  0
LINE
  5
21
  8
LAYER1
 10
346.999989
 20
219.322365
 30
0.0
 11
334.096307
 21
219.322365
 31
0.0
  0
LINE
  5
22
  8
LAYER1
 10
346.999989
 20
85.677621
 30
0.0
 11
334.096307
 21
85.677621
 31
0.0
  0
LINE
  5
23
  8
LAYER1
 62
     8
 10
237.088036
 20
304.999993
 30
0.0
 11
237.088036
 21
-0.000007
 31
0.0
  0
LINE
  5
24
  8
LAYER1
 62
     1
 10
31.502971
 20
304.999993
 30
0.0
 11
31.502971
 21
-0.000007
 31
0.0
  0
LINE
  5
25
  8
LAYER1
 10
251.145245
 20
299.999993
 30
0.0
 11
251.145245
 21
4.999993
 31
0.0
  0
LINE
  5
26
  8
LAYER1
 10
-0.000011
 20
299.999993
 30
0.0
 11
-0.000011
 21
4.999993
 31
0.0
  0
LINE
  5
27
  8
LAYER1
 10
334.096307
 20
219.322365
 30
0.0
 11
334.096307
 21
85.677621
 31
0.0
  0
LINE
  5
28
  8
LAYER1
 10
4.999989
 20
-0.000007
 30
0.0
 11
246.145245
 21
-0.000007
 31
0.0
  0
ARC
  5
29
  8
LAYER1
 10
4.999989
 20
4.999993
 30
0.0
 40
5.0
 50
180.0
 51
270.0
  0
ARC
  5
2A
  8
LAYER1
 10
246.145245
 20
4.999993
 30
0.0
 40
5.0
 50
270.0
 51
360.0
  0
LINE
  5
2B
  8
LAYER1
 10
334.096307
 20
99.999993
 30
0.0
 11
251.145245
 21
99.999993
 31
0.0
  0
LINE
  5
2C
  8
LAYER1
 10
267.563433
 20
165.216433
 30
0.0
 11
258.333745
 21
165.216433
 31
0.0
  0
LINE
  5
2D
  8
LAYER1
 10
267.563433
 20
139.783552
 30
0.0
 11
258.333745
 21
139.783552
 31
0.0
  0
LINE
  5
2E
  8
LAYER1
 10
267.563433
 20
139.783552
 30
0.0
 11
267.563433
 21
165.216433
 31
0.0
  0
LINE
  5
2F
  8
LAYER1
 10
258.333745
 20
139.783552
 30
0.0
 11
258.333745
 21
165.216433
 31
0.0
  0
LINE
  5
30
  8
LAYER1
 10
334.096307
 20
204.999993
 30
0.0
 11
251.145245
 21
204.999993
 31
0.0
  0
LINE
  5
31
  8
LAYER1
 10
4.999989
 20
304.999993
 30
0.0
 11
246.145245
 21
304.999993
 31
0.0
  0
ARC
  5
32
  8
LAYER1
 10
4.999989
 20
299.999993
 30
0.0
 40
5.0
 50
90.0
 51
180.0
  0
ARC
  5
33
  8
LAYER1
 10
246.145245
 20
299.999993
 30
0.0
 40
5.0
 50
360.0
 51
90.0
  0
LINE
  5
34
  8
LAYER1
 10
456.999989
 20
204.999993
 30
0.0
 11
456.999989
 21
99.999993
 31
0.0
  0
LINE
  5
35
  8
LAYER1
 62
     8
 10
404.588153
 20
204.999993
 30
0.0
 11
404.588153
 21
99.999993
 31
0.0
  0
LINE
  5
36
  8
LAYER1
 10
346.999989
 20
219.322365
 30
0.0
 11
346.999989
 21
85.677621
 31
0.0
  0
LINE
  5
37
  8
LAYER1
 10
346.999989
 20
99.999993
 30
0.0
 11
456.999989
 21
99.999993
 31
0.0
  0
LINE
  5
38
  8
LAYER1
 10
346.999989
 20
204.999993
 30
0.0
 11
456.999989
 21
204.999993
 31
0.0
  0
ENDBLK
  5
3A
  8
0
  0
BLOCK
  8
0
  2
*X4
 70
     1
 10
0.0
 20
0.0
 30
0.0
  3
*X4
  1

  0
LINE
  5
F3
  8
LAYER1
 62
     0
 10
145.457087
 20
225.314184
 30
0.0
 11
149.83512
 21
229.692217
 31
0.0
  0
LINE
  5
F4
  8
LAYER1
 62
     0
 10
142.626178
 20
224.728338
 30
0.0
 11
150.420966
 21
232.523127
 31
0.0
  0
LINE
  5
F5
  8
LAYER1
 62
     0
 10
140.598185
 20
224.94541
 30
0.0
 11
150.203896
 21
234.551121
 31
0.0
  0
LINE
  5
F6
  8
LAYER1
 62
     0
 10
138.946999
 20
225.539288
 30
0.0
 11
149.61002
 21
236.202308
 31
0.0
  0
LINE
  5
F7
  8
LAYER1
 62
     0
 10
137.564696
 20
226.402049
 30
0.0
 11
148.747259
 21
237.584612
 31
0.0
  0
LINE
  5
F8
  8
LAYER1
 62
     0
 10
136.413865
 20
227.496282
 30
0.0
 11
147.653027
 21
238.735444
 31
0.0
  0
LINE
  5
F9
  8
LAYER1
 62
     0
 10
135.490877
 20
228.818358
 30
0.0
 11
146.330952
 21
239.658433
 31
0.0
  0
LINE
  5
FA
  8
LAYER1
 62
     0
 10
134.823128
 20
230.395673
 30
0.0
 11
144.753638
 21
240.326183
 31
0.0
  0
LINE
  5
FB
  8
LAYER1
 62
     0
 10
134.493256
 20
232.310865
 30
0.0
 11
142.838447
 21
240.656056
 31
0.0
  0
LINE
  5
FC
  8
LAYER1
 62
     0
 10
134.777963
 20
234.840636
 30
0.0
 11
140.308677
 21
240.37135
 31
0.0
  0
ENDBLK
  5
FE
  8
0
  0
BLOCK
  8
0
  2
*X5
 70
     1
 10
0.0
 20
0.0
 30
0.0
  3
*X5
  1

  0
LINE
  5
100
  8
LAYER1
 62
     0
 10
9.758901
 20
-9.758901
 30
0.0
 11
10.214226
 21
-9.303577
 31
0.0
  0
LINE
  5
101
  8
LAYER1
 62
     0
 10
9.197635
 20
-9.197635
 30
0.0
 11
10.214226
 21
-8.181045
 31
0.0
  0
LINE
  5
102
  8
LAYER1
 62
     0
 10
8.636369
 20
-8.636369
 30
0.0
 11
10.214226
 21
-7.058513
 31
0.0
  0
LINE
  5
103
  8
LAYER1
 62
     0
 10
8.075103
 20
-8.075103
 30
0.0
 11
10.214226
 21
-5.935981
 31
0.0
  0
LINE
  5
104
  8
LAYER1
 62
     0
 10
7.513837
 20
-7.513837
 30
0.0
 11
10.214226
 21
-4.813449
 31
0.0
  0
LINE
  5
105
  8
LAYER1
 62
     0
 10
6.952571
 20
-6.952571
 30
0.0
 11
10.214226
 21
-3.690917
 31
0.0
  0
LINE
  5
106
  8
LAYER1
 62
     0
 10
6.391305
 20
-6.391305
 30
0.0
 11
10.214226
 21
-2.568385
 31
0.0
  0
LINE
  5
107
  8
LAYER1
 62
     0
 10
5.830039
 20
-5.830039
 30
0.0
 11
10.214226
 21
-1.445853
 31
0.0
  0
LINE
  5
108
  8
LAYER1
 62
     0
 10
5.268773
 20
-5.268773
 30
0.0
 11
10.214226
 21
-0.323321
 31
0.0
  0
LINE
  5
109
  8
LAYER1
 62
     0
 10
4.707507
 20
-4.707507
 30
0.0
 11
10.214226
 21
0.799211
 31
0.0
  0
LINE
  5
10A
  8
LAYER1
 62
     0
 10
4.146241
 20
-4.146241
 30
0.0
 11
10.214226
 21
1.921744
 31
0.0
  0
LINE
  5
10B
  8
LAYER1
 62
     0
 10
3.584975
 20
-3.584975
 30
0.0
 11
10.214226
 21
3.044276
 31
0.0
  0
LINE
  5
10C
  8
LAYER1
 62
     0
 10
3.023709
 20
-3.023709
 30
0.0
 11
10.214226
 21
4.166808
 31
0.0
  0
LINE
  5
10D
  8
LAYER1
 62
     0
 10
2.462443
 20
-2.462443
 30
0.0
 11
10.214226
 21
5.28934
 31
0.0
  0
LINE
  5
10E
  8
LAYER1
 62
     0
 10
1.901177
 20
-1.901177
 30
0.0
 11
10.214226
 21
6.411872
 31
0.0
  0
LINE
  5
10F
  8
LAYER1
 62
     0
 10
1.339911
 20
-1.339911
 30
0.0
 11
10.214226
 21
7.534404
 31
0.0
  0
LINE
  5
110
  8
LAYER1
 62
     0
 10
0.778645
 20
-0.778645
 30
0.0
 11
10.214226
 21
8.656936
 31
0.0
  0
LINE
  5
111
  8
LAYER1
 62
     0
 10
0.217379
 20
-0.217379
 30
0.0
 11
10.214226
 21
9.779468
 31
0.0
  0
LINE
  5
112
  8
LAYER1
 62
     0
 10
-0.343887
 20
0.343887
 30
0.0
 11
9.526452
 21
10.214226
 31
0.0
  0
LINE
  5
113
  8
LAYER1
 62
     0
 10
-0.905153
 20
0.905153
 30
0.0
 11
8.40392
 21
10.214226
 31
0.0
  0
LINE
  5
114
  8
LAYER1
 62
     0
 10
-1.466419
 20
1.466419
 30
0.0
 11
7.281388
 21
10.214226
 31
0.0
  0
LINE
  5
115
  8
LAYER1
 62
     0
 10
-2.027685
 20
2.027685
 30
0.0
 11
6.158856
 21
10.214226
 31
0.0
  0
LINE
  5
116
  8
LAYER1
 62
     0
 10
-2.588951
 20
2.588951
 30
0.0
 11
5.036324
 21
10.214226
 31
0.0
  0
LINE
  5
117
  8
LAYER1
 62
     0
 10
-3.150217
 20
3.150217
 30
0.0
 11
3.913792
 21
10.214226
 31
0.0
  0
LINE
  5
118
  8
LAYER1
 62
     0
 10
-3.711483
 20
3.711483
 30
0.0
 11
2.79126
 21
10.214226
 31
0.0
  0
LINE
  5
119
  8
LAYER1
 62
     0
 10
-4.272749
 20
4.272749
 30
0.0
 11
1.668728
 21
10.214226
 31
0.0
  0
LINE
  5
11A
  8
LAYER1
 62
     0
 10
-4.834015
 20
4.834015
 30
0.0
 11
0.546196
 21
10.214226
 31
0.0
  0
LINE
  5
11B
  8
LAYER1
 62
     0
 10
-5.395281
 20
5.395281
 30
0.0
 11
-0.576336
 21
10.214226
 31
0.0
  0
LINE
  5
11C
  8
LAYER1
 62
     0
 10
-5.956547
 20
5.956547
 30
0.0
 11
-1.698868
 21
10.214226
 31
0.0
  0
LINE
  5
11D
  8
LAYER1
 62
     0
 10
-6.517813
 20
6.517813
 30
0.0
 11
-2.8214
 21
10.214226
 31
0.0
  0
LINE
  5
11E
  8
LAYER1
 62
     0
 10
-7.079079
 20
7.079079
 30
0.0
 11
-3.943932
 21
10.214226
 31
0.0
  0
LINE
  5
11F
  8
LAYER1
 62
     0
 10
-7.640345
 20
7.640345
 30
0.0
 11
-5.066464
 21
10.214226
 31
0.0
  0
LINE
  5
120
  8
LAYER1
 62
     0
 10
-8.201611
 20
8.201611
 30
0.0
 11
-6.188996
 21
10.214226
 31
0.0
  0
LINE
  5
121
  8
LAYER1
 62
     0
 10
-8.762877
 20
8.762877
 30
0.0
 11
-7.311528
 21
10.214226
 31
0.0
  0
LINE
  5
122
  8
LAYER1
 62
     0
 10
-9.324143
 20
9.324143
 30
0.0
 11
-8.43406
 21
10.214226
 31
0.0
  0
LINE
  5
123
  8
LAYER1
 62
     0
 10
-9.885409
 20
9.885409
 30
0.0
 11
-9.556592
 21
10.214226
 31
0.0
  0
ENDBLK
  5
125
  8
0
  0
ENDSEC
  0
SECTION
  2
ENTITIES
  0
INSERT
  5
1F
  8
LAYER1
  2
A$C45674E1D
 10
1017.848603
 20
344.493934
 30
0.0
  0
INSERT
  5
3B
  8
LAYER1
  2
A$C484036D9
 10
1017.848603
 20
745.296471
 30
0.0
  0
TEXT
  8
0
  40
30
  5
127
  62
5
  72
0
  71
0
 10
1189.20
 20
36.7195
 30
0.000000
  1
RIELLO 40 FS 8 D
  0
LINE
  5
61
  8
CONTORNO_PAGINA
 62
   150
 10
0.0
 20
0.0
 30
0.0
 11
1995.8
 21
0.0
 31
0.0
  0
LINE
  5
63
  8
LAYER1
 62
     4
 10
30.0
 20
197.314356
 30
0.0
 11
1965.8
 21
197.314356
 31
0.0
  0
LINE
  5
64
  8
CONTORNO_PAGINA
 62
     5
 10
30.0
 20
30.0
 30
0.0
 11
1965.8
 21
30.0
 31
0.0
  0
LINE
  5
65
  8
LAYER1
 62
   150
 10
30.0
 20
142.021627
 30
0.0
 11
1965.8
 21
142.021627
 31
0.0
  0
LINE
  5
66
  8
CONTORNO_PAGINA
 62
     5
 10
30.0
 20
1355.473725
 30
0.0
 11
1965.8
 21
1355.473725
 31
0.0
  0
LINE
  5
67
  8
CONTORNO_PAGINA
 62
   150
 10
0.0
 20
1385.473725
 30
0.0
 11
1995.8
 21
1385.473725
 31
0.0
  0
LINE
  5
68
  8
CONTORNO_PAGINA
 62
     5
 10
30.0
 20
30.0
 30
0.0
 11
30.0
 21
1355.473725
 31
0.0
  0
LINE
  5
69
  8
CONTORNO_PAGINA
 62
   150
 10
0.0
 20
0.0
 30
0.0
 11
0.0
 21
1385.473725
 31
0.0
  0
TEXT
  8
0
  40
25
  5
128
  62
5
  72
0
  71
0
 10
47.0215
 20
152.107
 30
0.000000
  1
Codice n.
  7
SIMPLEX_INCLINATO
  0
TEXT
  8
0
  40
30
  5
129
  62
5
  72
0
  71
0
 10
268.571
 20
36.7195
 30
0.000000
  1
3758802
  0
TEXT
  8
0
  40
25
  5
12A
  62
5
  72
0
  71
0
 10
605.154
 20
152.107
 30
0.000000
  1
Denominazione commerciale
  7
SIMPLEX_INCLINATO
  0
LINE
  5
6E
  8
LAYER1
 62
     4
 10
588.132927
 20
30.0
 30
0.0
 11
588.132927
 21
197.314356
 31
0.0
  0
INSERT
  5
6F
  8
LAYER1
  2
A$C7E3F515B
 10
538.410354
 20
745.296471
 30
0.0
  0
LINE
  5
DE
  8
CONTORNO_PAGINA
 62
     5
 10
1965.8
 20
30.0
 30
0.0
 11
1965.8
 21
1355.473725
 31
0.0
  0
LINE
  5
DF
  8
CONTORNO_PAGINA
 62
   150
 10
1995.8
 20
0.0
 30
0.0
 11
1995.8
 21
1385.473725
 31
0.0
  0
TEXT
  8
0
  40
25
  5
12B
  62
5
  72
0
  71
0
 10
1698.01
 20
152.107
 30
0.000000
  1
scala
  7
SIMPLEX_INCLINATO
  0
LINE
  5
E1
  8
LAYER1
 62
     4
 10
1680.990004
 20
30.0
 30
0.0
 11
1680.990004
 21
197.314356
 31
0.0
  0
TEXT
  8
0
  40
30
  5
12C
  62
5
  72
0
  71
0
 10
1824.54
 20
36.7195
 30
0.000000
  1
1:1
  0
ENDSEC
  0
EOF
