  0
SECTION
  2
HEADER
  9
$ACADVER
  1
AC1009
  9
$INSBASE
 10
0.0
 20
0.0
 30
0.0
  9
$EXTMIN
 10
-812.901254
 20
47.654953
 30
-0.001526
  9
$EXTMAX
 10
2629.323865
 20
2818.78148
 30
0.0
  9
$LIMMIN
 10
0.0
 20
0.0
  9
$LIMMAX
 10
12.0
 20
9.0
  9
$ORTHOMODE
 70
     0
  9
$REGENMODE
 70
     1
  9
$FILLMODE
 70
     1
  9
$QTEXTMODE
 70
     0
  9
$MIRRTEXT
 70
     1
  9
$DRAGMODE
 70
     2
  9
$LTSCALE
 40
5.0
  9
$OSMODE
 70
   167
  9
$ATTMODE
 70
     1
  9
$TEXTSIZE
 40
0.2
  9
$TRACEWID
 40
0.05
  9
$TEXTSTYLE
  7
STANDARD
  9
$CLAYER
  8
0
  9
$CELTYPE
  6
BYLAYER
  9
$CECOLOR
 62
   256
  9
$DIMSCALE
 40
1.0
  9
$DIMASZ
 40
0.18
  9
$DIMEXO
 40
0.0625
  9
$DIMDLI
 40
0.38
  9
$DIMRND
 40
0.0
  9
$DIMDLE
 40
0.0
  9
$DIMEXE
 40
0.18
  9
$DIMTP
 40
0.0
  9
$DIMTM
 40
0.0
  9
$DIMTXT
 40
0.18
  9
$DIMCEN
 40
0.09
  9
$DIMTSZ
 40
0.0
  9
$DIMTOL
 70
     0
  9
$DIMLIM
 70
     0
  9
$DIMTIH
 70
     1
  9
$DIMTOH
 70
     1
  9
$DIMSE1
 70
     0
  9
$DIMSE2
 70
     0
  9
$DIMTAD
 70
     0
  9
$DIMZIN
 70
     0
  9
$DIMBLK
  1

  9
$DIMASO
 70
     1
  9
$DIMSHO
 70
     1
  9
$DIMPOST
  1

  9
$DIMAPOST
  1

  9
$DIMALT
 70
     0
  9
$DIMALTD
 70
     2
  9
$DIMALTF
 40
25.4
  9
$DIMLFAC
 40
1.0
  9
$DIMTOFL
 70
     0
  9
$DIMTVP
 40
0.0
  9
$DIMTIX
 70
     0
  9
$DIMSOXD
 70
     0
  9
$DIMSAH
 70
     0
  9
$DIMBLK1
  1

  9
$DIMBLK2
  1

  9
$DIMSTYLE
  2
STANDARD
  9
$DIMCLRD
 70
     0
  9
$DIMCLRE
 70
     0
  9
$DIMCLRT
 70
     0
  9
$DIMTFAC
 40
1.0
  9
$DIMGAP
 40
0.09
  9
$LUNITS
 70
     2
  9
$LUPREC
 70
     4
  9
$SKETCHINC
 40
0.1
  9
$FILLETRAD
 40
0.5
  9
$AUNITS
 70
     0
  9
$AUPREC
 70
     0
  9
$MENU
  1
.
  9
$ELEVATION
 40
0.0
  9
$PELEVATION
 40
0.0
  9
$THICKNESS
 40
0.0
  9
$LIMCHECK
 70
     0
  9
$BLIPMODE
 70
     0
  9
$CHAMFERA
 40
0.5
  9
$CHAMFERB
 40
0.5
  9
$SKPOLY
 70
     1
  9
$TDCREATE
 40
2451214.876508
  9
$TDUPDATE
 40
2451225.50099
  9
$TDINDWG
 40
0.002846
  9
$TDUSRTIMER
 40
0.002846
  9
$USRTIMER
 70
     1
  9
$ANGBASE
 50
0.0
  9
$ANGDIR
 70
     0
  9
$PDMODE
 70
     0
  9
$PDSIZE
 40
0.0
  9
$PLINEWID
 40
0.0
  9
$COORDS
 70
     1
  9
$SPLFRAME
 70
     0
  9
$SPLINETYPE
 70
     6
  9
$SPLINESEGS
 70
     8
  9
$ATTDIA
 70
     0
  9
$ATTREQ
 70
     1
  9
$HANDLING
 70
     1
  9
$HANDSEED
  5
599
  9
$SURFTAB1
 70
     6
  9
$SURFTAB2
 70
     6
  9
$SURFTYPE
 70
     6
  9
$SURFU
 70
     6
  9
$SURFV
 70
     6
  9
$UCSNAME
  2

  9
$UCSORG
 10
0.0
 20
0.0
 30
0.0
  9
$UCSXDIR
 10
1.0
 20
0.0
 30
0.0
  9
$UCSYDIR
 10
0.0
 20
1.0
 30
0.0
  9
$PUCSNAME
  2

  9
$PUCSORG
 10
0.0
 20
0.0
 30
0.0
  9
$PUCSXDIR
 10
1.0
 20
0.0
 30
0.0
  9
$PUCSYDIR
 10
0.0
 20
1.0
 30
0.0
  9
$USERI1
 70
     0
  9
$USERI2
 70
     0
  9
$USERI3
 70
     0
  9
$USERI4
 70
     0
  9
$USERI5
 70
     0
  9
$USERR1
 40
0.0
  9
$USERR2
 40
0.0
  9
$USERR3
 40
0.0
  9
$USERR4
 40
0.0
  9
$USERR5
 40
0.0
  9
$WORLDVIEW
 70
     1
  9
$SHADEDGE
 70
     3
  9
$SHADEDIF
 70
    70
  9
$TILEMODE
 70
     1
  9
$MAXACTVP
 70
    48
  9
$PLIMCHECK
 70
     0
  9
$PEXTMIN
 10
1.000000E+020
 20
1.000000E+020
 30
1.000000E+020
  9
$PEXTMAX
 10
-1.000000E+020
 20
-1.000000E+020
 30
-1.000000E+020
  9
$PLIMMIN
 10
0.0
 20
0.0
  9
$PLIMMAX
 10
12.0
 20
9.0
  9
$UNITMODE
 70
     0
  9
$VISRETAIN
 70
     1
  9
$PLINEGEN
 70
     0
  9
$PSLTSCALE
 70
     1
  0
ENDSEC
  0
SECTION
  2
TABLES
  0
TABLE
  2
VPORT
 70
     6
  0
VPORT
  2
*ACTIVE
 70
     0
 10
0.0
 20
0.0
 11
1.0
 21
1.0
 12
880.054045
 22
1433.218216
 13
0.0
 23
0.0
 14
0.5
 24
0.5
 15
0.5
 25
0.5
 16
0.0
 26
0.0
 36
1.0
 17
0.0
 27
0.0
 37
0.0
 40
2812.693425
 41
1.756892
 42
50.0
 43
0.0
 44
0.0
 50
0.0
 51
0.0
 71
     0
 72
   100
 73
     1
 74
     1
 75
     0
 76
     0
 77
     0
 78
     0
  0
ENDTAB
  0
TABLE
  2
LTYPE
 70
     2
  0
LTYPE
  2
CONTINUOUS
 70
     0
  3
Solid line
 72
    65
 73
     0
 40
0.0
  0
LTYPE
  2
DASHED2
 70
     0
  3
Dashed (.5x) _ _ _ _ _ _ _ _ _ _ _ _ _ _ _ _ _
 72
    65
 73
     2
 40
9.525
 49
6.35
 49
-3.175
  0
ENDTAB
  0
TABLE
  2
LAYER
 70
     3
  0
LAYER
  2
0
 70
     0
 62
     7
  6
CONTINUOUS
  0
LAYER
  2
CONTORNO_PAGINA
 70
     0
 62
     7
  6
CONTINUOUS
  0
LAYER
  2
LAYER1
 70
     0
 62
     7
  6
CONTINUOUS
  0
ENDTAB
  0
TABLE
  2
STYLE
 70
     2
  0
STYLE
  2
STANDARD
 70
     0
 40
0.0
 41
1.0
 50
0.0
 71
     0
 42
0.2
  3
txt
  4

  0
STYLE
  2
SIMPLEX_INCLINATO
 70
     0
 40
2.0
 41
1.0
 50
15.0
 71
     0
 42
89.952478
  3
simplex.shx
  4

  0
ENDTAB
  0
TABLE
  2
VIEW
 70
     0
  0
ENDTAB
  0
TABLE
  2
UCS
 70
     0
  0
ENDTAB
  0
TABLE
  2
APPID
 70
     1
  0
APPID
  2
ACAD
 70
     0
  0
ENDTAB
  0
TABLE
  2
DIMSTYLE
 70
     1
  0
DIMSTYLE
  2
STANDARD
 70
     0
  3

  4

  5

  6

  7

 40
1.0
 41
0.18
 42
0.0625
 43
0.38
 44
0.18
 45
0.0
 46
0.0
 47
0.0
 48
0.0
140
0.18
141
0.09
142
0.0
143
25.4
144
1.0
145
0.0
146
1.0
147
0.09
 71
     0
 72
     0
 73
     1
 74
     1
 75
     0
 76
     0
 77
     0
 78
     0
170
     0
171
     2
172
     0
173
     0
174
     0
175
     0
176
     0
177
     0
178
     0
  0
ENDTAB
  0
ENDSEC
  0
SECTION
  2
BLOCKS
  0
BLOCK
  8
0
  2
$MODEL_SPACE
 70
     0
 10
0.0
 20
0.0
 30
0.0
  3
$MODEL_SPACE
  1

  0
ENDBLK
  5
1B
  8
0
  0
BLOCK
 67
     1
  8
0
  2
$PAPER_SPACE
 70
     0
 10
0.0
 20
0.0
 30
0.0
  3
$PAPER_SPACE
  1

  0
ENDBLK
  5
18
 67
     1
  8
0
  0
BLOCK
  8
0
  2
A$C4B960F43
 70
     0
 10
0.0
 20
0.0
 30
0.0
  3
A$C4B960F43
  1

  0
LINE
  5
59
  8
CONTORNO_PAGINA
 62
   150
 10
2535.268496
 20
-0.000004
 30
0.0
 11
2535.268496
 21
2770.947445
 31
0.0
  0
LINE
  5
5A
  8
CONTORNO_PAGINA
 62
     5
 10
2505.268496
 20
29.999996
 30
0.0
 11
2505.268496
 21
2740.947445
 31
0.0
  0
LINE
  5
5B
  8
CONTORNO_PAGINA
 62
     5
 10
29.999998
 20
29.999996
 30
0.0
 11
29.999998
 21
2740.947445
 31
0.0
  0
LINE
  5
5C
  8
CONTORNO_PAGINA
 62
   150
 10
-0.000002
 20
-0.000004
 30
0.0
 11
-0.000002
 21
2770.947445
 31
0.0
  0
LINE
  5
5D
  8
CONTORNO_PAGINA
 62
   150
 10
-0.000002
 20
2770.947445
 30
0.0
 11
2535.268496
 21
2770.947445
 31
0.0
  0
LINE
  5
5E
  8
CONTORNO_PAGINA
 62
     5
 10
29.999998
 20
2740.947445
 30
0.0
 11
2505.268496
 21
2740.947445
 31
0.0
  0
LINE
  5
5F
  8
LAYER1
 62
   150
 10
29.999998
 20
142.021623
 30
0.0
 11
2505.268496
 21
142.021623
 31
0.0
  0
LINE
  5
60
  8
LAYER1
 62
     4
 10
29.999998
 20
197.314352
 30
0.0
 11
2505.268496
 21
197.314352
 31
0.0
  0
LINE
  5
61
  8
CONTORNO_PAGINA
 62
   150
 10
-0.000002
 20
-0.000004
 30
0.0
 11
2535.268496
 21
-0.000004
 31
0.0
  0
LINE
  5
62
  8
CONTORNO_PAGINA
 62
     5
 10
29.999998
 20
29.999996
 30
0.0
 11
2505.268496
 21
29.999996
 31
0.0
  0
TEXT
  8
0
  40
25
  5
593
  62
5
  72
0
  71
0
 10
605.154
 20
152.107
 30
0.000000
  1
Denominazione commerciale
  7
SIMPLEX_INCLINATO
  0
LINE
  5
64
  8
LAYER1
 62
     4
 10
588.132925
 20
29.999996
 30
0.0
 11
588.132925
 21
197.314352
 31
0.0
  0
TEXT
  8
0
  40
25
  5
594
  62
5
  72
0
  71
0
 10
47.0215
 20
152.107
 30
0.000000
  1
Codice n.
  7
SIMPLEX_INCLINATO
  0
LINE
  5
66
  8
LAYER1
 62
     4
 10
2220.4585
 20
29.999996
 30
0.0
 11
2220.4585
 21
197.314352
 31
0.0
  0
TEXT
  8
0
  40
25
  5
595
  62
5
  72
0
  71
0
 10
2237.48
 20
152.107
 30
0.000000
  1
scala
  7
SIMPLEX_INCLINATO
  0
ENDBLK
  5
69
  8
0
  0
BLOCK
  8
0
  2
A$C3B483EB8
 70
     0
 10
0.0
 20
0.0
 30
0.0
  3
A$C3B483EB8
  1

  0
LINE
  5
1DF
  8
0
 10
847.827164
 20
355.929231
 30
0.0
 11
847.827164
 21
180.53306
 31
0.0
  0
ARC
  5
1E0
  8
0
 10
809.801896
 20
268.231145
 30
0.0
 40
68.426731
 50
303.75948
 51
56.24052
  0
ARC
  5
1E1
  8
0
 10
809.801896
 20
268.231145
 30
0.0
 40
88.198085
 50
295.539602
 51
64.460398
  0
LINE
  5
1E2
  8
0
 10
722.748326
 20
355.929231
 30
0.0
 11
722.748326
 21
180.53306
 31
0.0
  0
LINE
  5
1E3
  8
0
 10
670.386648
 20
252.543001
 30
0.0
 11
670.386648
 21
572.03983
 31
0.0
  0
LINE
  5
1E4
  8
0
 10
257.174238
 20
252.543001
 30
0.0
 11
257.174238
 21
572.03983
 31
0.0
  0
ARC
  5
1E5
  8
0
 10
175.732558
 20
-79.890017
 30
0.0
 40
384.778632
 50
101.929668
 51
117.175068
  0
LINE
  5
1E6
  8
0
 10
96.194649
 20
59.533438
 30
0.0
 11
96.194649
 21
296.578198
 31
0.0
  0
ARC
  5
1E7
  8
0
 10
652.426482
 20
252.543001
 30
0.0
 40
17.960167
 50
270.0
 51
0.0
  0
LINE
  5
1E8
  8
0
 10
572.505541
 20
-0.000004
 30
0.0
 11
757.393374
 21
-0.000004
 31
0.0
  0
LINE
  5
1E9
  8
0
 10
757.393374
 20
74.823812
 30
0.0
 11
654.450429
 21
234.697239
 31
0.0
  0
ARC
  5
1EA
  8
0
 10
463.780443
 20
130.634453
 30
0.0
 40
108.725098
 50
180.0
 51
0.0
  0
LINE
  5
1EB
  8
0
 10
572.505541
 20
-0.000004
 30
0.0
 11
572.505541
 21
234.582835
 31
0.0
  0
LINE
  5
1EC
  8
0
 62
     8
 10
263.237187
 20
239.088492
 30
0.0
 11
110.574101
 21
239.088492
 31
0.0
  0
LINE
  5
1ED
  8
0
 62
     8
 10
257.174238
 20
256.146222
 30
0.0
 11
110.574101
 21
256.146222
 31
0.0
  0
LINE
  5
1EE
  8
0
 62
     8
 10
335.283602
 20
85.568919
 30
0.0
 11
96.194649
 21
85.568919
 31
0.0
  0
LINE
  5
1EF
  8
0
 10
335.283602
 20
66.715638
 30
0.0
 11
107.695371
 21
66.715638
 31
0.0
  0
LINE
  5
1F0
  8
0
 62
     8
 10
335.283602
 20
102.626649
 30
0.0
 11
110.574101
 21
102.626649
 31
0.0
  0
LINE
  5
1F1
  8
0
 62
     8
 10
335.283602
 20
170.85757
 30
0.0
 11
110.574101
 21
170.85757
 31
0.0
  0
LINE
  5
1F2
  8
0
 62
     8
 10
335.283602
 20
187.915301
 30
0.0
 11
110.574101
 21
187.915301
 31
0.0
  0
LINE
  5
1F3
  8
0
 62
     8
 10
335.283602
 20
153.79984
 30
0.0
 11
110.574101
 21
153.79984
 31
0.0
  0
LINE
  5
1F4
  8
0
 62
     8
 10
335.283602
 20
119.684379
 30
0.0
 11
110.574101
 21
119.684379
 31
0.0
  0
LINE
  5
1F5
  8
0
 62
     8
 10
335.283602
 20
136.74211
 30
0.0
 11
110.574101
 21
136.74211
 31
0.0
  0
LINE
  5
1F6
  8
0
 62
     8
 10
335.283602
 20
204.973031
 30
0.0
 11
110.574101
 21
204.973031
 31
0.0
  0
LINE
  5
1F7
  8
0
 62
     8
 10
335.283602
 20
222.030762
 30
0.0
 11
110.574101
 21
222.030762
 31
0.0
  0
LINE
  5
1F8
  8
0
 10
-0.000019
 20
93.696735
 30
0.0
 11
-0.000019
 21
262.414902
 31
0.0
  0
LINE
  5
1F9
  8
0
 10
107.695371
 20
66.715638
 30
0.0
 11
96.194649
 21
85.568919
 31
0.0
  0
ARC
  5
1FA
  8
0
 10
175.732558
 20
436.001653
 30
0.0
 40
384.778632
 50
242.824932
 51
258.070332
  0
LINE
  5
1FB
  8
0
 10
335.283602
 20
60.431213
 30
0.0
 11
335.283602
 21
234.582835
 31
0.0
  0
LINE
  5
1FC
  8
0
 10
355.055345
 20
60.431213
 30
0.0
 11
355.055345
 21
234.582835
 31
0.0
  0
LINE
  5
1FD
  8
0
 10
355.055345
 20
60.431213
 30
0.0
 11
335.283602
 21
60.431213
 31
0.0
  0
LINE
  5
1FE
  8
0
 10
652.426482
 20
234.582835
 30
0.0
 11
275.134404
 21
234.582835
 31
0.0
  0
ARC
  5
1FF
  8
0
 10
275.134404
 20
252.543001
 30
0.0
 40
17.960167
 50
180.0
 51
270.0
  0
LINE
  5
200
  8
0
 10
757.393374
 20
-0.000004
 30
0.0
 11
757.393374
 21
74.823812
 31
0.0
  0
LINE
  5
201
  8
0
 10
847.827164
 20
180.53306
 30
0.0
 11
847.327164
 21
180.03306
 31
0.0
  0
LINE
  5
202
  8
0
 10
772.276628
 20
180.03306
 30
0.0
 11
771.776628
 21
180.53306
 31
0.0
  0
LINE
  5
203
  8
0
 10
722.748326
 20
180.53306
 30
0.0
 11
723.248326
 21
180.03306
 31
0.0
  0
LINE
  5
204
  8
0
 10
722.748326
 20
204.30585
 30
0.0
 11
674.019529
 21
204.30585
 31
0.0
  0
LINE
  5
205
  8
0
 10
847.327164
 20
180.03306
 30
0.0
 11
723.248326
 21
180.03306
 31
0.0
  0
ARC
  5
206
  8
0
 10
652.426482
 20
572.03983
 30
0.0
 40
17.960167
 50
0.0
 51
90.0
  0
LINE
  5
207
  8
0
 62
     1
 10
670.386648
 20
290.593311
 30
0.0
 11
257.174238
 21
290.593311
 31
0.0
  0
LINE
  5
208
  8
0
 62
     1
 10
556.388294
 20
311.480413
 30
0.0
 11
556.388294
 21
568.602924
 31
0.0
  0
LINE
  5
209
  8
0
 62
     1
 10
278.57131
 20
311.480413
 30
0.0
 11
278.57131
 21
568.602924
 31
0.0
  0
LINE
  5
20A
  8
0
 10
257.174238
 20
289.395998
 30
0.0
 11
107.695371
 21
289.395998
 31
0.0
  0
LINE
  5
20B
  8
0
 62
     8
 10
257.174238
 20
270.542718
 30
0.0
 11
96.194649
 21
270.542718
 31
0.0
  0
LINE
  5
20C
  8
0
 10
107.695371
 20
289.395998
 30
0.0
 11
96.194649
 21
270.542718
 31
0.0
  0
LINE
  5
20D
  8
0
 62
     1
 10
556.388294
 20
311.480413
 30
0.0
 11
278.57131
 21
311.480413
 31
0.0
  0
LINE
  5
20E
  8
0
 10
610.024287
 20
328.010187
 30
0.0
 11
610.024287
 21
363.040886
 31
0.0
  0
LINE
  5
20F
  8
0
 10
575.585513
 20
328.010187
 30
0.0
 11
575.585513
 21
363.040886
 31
0.0
  0
LINE
  5
210
  8
0
 10
610.024287
 20
328.010187
 30
0.0
 11
575.585513
 21
328.010187
 31
0.0
  0
LINE
  5
211
  8
0
 10
610.024287
 20
363.040886
 30
0.0
 11
575.585513
 21
363.040886
 31
0.0
  0
LINE
  5
212
  8
0
 10
652.426482
 20
589.999996
 30
0.0
 11
275.134404
 21
589.999996
 31
0.0
  0
LINE
  5
213
  8
0
 62
     1
 10
556.388294
 20
568.602924
 30
0.0
 11
278.57131
 21
568.602924
 31
0.0
  0
ARC
  5
214
  8
0
 10
275.134404
 20
572.03983
 30
0.0
 40
17.960167
 50
90.0
 51
180.0
  0
LINE
  5
215
  8
0
 10
782.462569
 20
425.957361
 30
0.0
 11
782.462569
 21
532.149558
 31
0.0
  0
LINE
  5
216
  8
0
 10
839.935301
 20
384.612571
 30
0.0
 11
751.313835
 21
384.612571
 31
0.0
  0
LINE
  5
217
  8
0
 10
847.327164
 20
356.429231
 30
0.0
 11
847.827164
 21
355.929231
 31
0.0
  0
LINE
  5
218
  8
0
 10
771.776628
 20
355.929231
 30
0.0
 11
772.276628
 21
356.429231
 31
0.0
  0
LINE
  5
219
  8
0
 10
839.935301
 20
356.429231
 30
0.0
 11
839.935301
 21
384.612571
 31
0.0
  0
LINE
  5
21A
  8
0
 10
751.313835
 20
356.429231
 30
0.0
 11
751.313835
 21
384.612571
 31
0.0
  0
LINE
  5
21B
  8
0
 10
723.248326
 20
356.429231
 30
0.0
 11
722.748326
 21
355.929231
 31
0.0
  0
LINE
  5
21C
  8
0
 10
722.748326
 20
332.15644
 30
0.0
 11
670.386648
 21
332.15644
 31
0.0
  0
LINE
  5
21D
  8
0
 10
847.327164
 20
356.429231
 30
0.0
 11
723.248326
 21
356.429231
 31
0.0
  0
LINE
  5
21E
  8
0
 10
782.462569
 20
425.957361
 30
0.0
 11
781.962569
 21
425.457361
 31
0.0
  0
LINE
  5
21F
  8
0
 10
781.962569
 20
425.457361
 30
0.0
 11
670.386648
 21
425.457361
 31
0.0
  0
LINE
  5
220
  8
0
 10
782.462569
 20
532.149558
 30
0.0
 11
781.962569
 21
532.649558
 31
0.0
  0
LINE
  5
221
  8
0
 10
781.962569
 20
532.649558
 30
0.0
 11
670.386648
 21
532.649558
 31
0.0
  0
ENDBLK
  5
223
  8
0
  0
BLOCK
  8
0
  2
A$C75A60F5A
 70
     0
 10
0.0
 20
0.0
 30
0.0
  3
A$C75A60F5A
  1

  0
LINE
  5
3B4
  8
0
 10
613.640405
 20
572.999997
 30
0.0
 11
1200.23862
 21
572.999997
 31
0.0
  0
ARC
  5
3B5
  8
0
 10
1015.760999
 20
255.44065
 30
0.0
 40
23.656729
 50
180.0
 51
251.593814
  0
LINE
  5
3B6
  8
0
 10
748.233956
 20
374.417123
 30
0.0
 11
1144.957479
 21
374.417123
 31
0.0
  0
LINE
  5
3B7
  8
0
 10
748.233956
 20
354.081323
 30
0.0
 11
1144.957479
 21
354.081323
 31
0.0
  0
LINE
  5
3B8
  8
0
 10
997.862604
 20
176.396168
 30
0.0
 11
966.38998
 21
176.396168
 31
0.0
  0
LINE
  5
3B9
  8
0
 10
997.862604
 20
-0.000003
 30
0.0
 11
966.38998
 21
-0.000003
 31
0.0
  0
LINE
  5
3BA
  8
0
 10
1289.371866
 20
130.401007
 30
0.0
 11
993.117065
 21
228.987388
 31
0.0
  0
LINE
  5
3BB
  8
0
 10
1289.371866
 20
120.461483
 30
0.0
 11
990.217114
 21
220.012897
 31
0.0
  0
LINE
  5
3BC
  8
0
  6
DASHED2
 10
-0.000005
 20
640.825741
 30
0.0
 11
246.711715
 21
640.825741
 31
0.0
  0
LINE
  5
3BD
  8
0
  6
DASHED2
 10
283.323092
 20
50.172814
 30
0.0
 11
182.697852
 21
50.172814
 31
0.0
  0
LINE
  5
3BE
  8
0
  6
DASHED2
 10
-0.000005
 20
227.61333
 30
0.0
 11
-0.000005
 21
640.825741
 31
0.0
  0
LINE
  5
3BF
  8
0
  6
DASHED2
 10
182.197852
 20
174.751652
 30
0.0
 11
182.197852
 21
50.672814
 31
0.0
  0
LINE
  5
3C0
  8
0
  6
DASHED2
 10
-0.000005
 20
227.61333
 30
0.0
 11
200.788225
 21
227.61333
 31
0.0
  0
LINE
  5
3C1
  8
0
  6
DASHED2
 10
201.288225
 20
227.11333
 30
0.0
 11
201.288225
 21
175.251652
 31
0.0
  0
LINE
  5
3C2
  8
0
  6
DASHED2
 10
201.288225
 20
175.251652
 30
0.0
 11
182.697852
 21
175.251652
 31
0.0
  0
LINE
  5
3C3
  8
0
  6
DASHED2
 10
200.788225
 20
227.61333
 30
0.0
 11
201.288225
 21
227.11333
 31
0.0
  0
LINE
  5
3C4
  8
0
 10
763.585902
 20
512.651055
 30
0.0
 11
763.585902
 21
531.412451
 31
0.0
  0
LINE
  5
3C5
  8
0
 10
817.882953
 20
512.651055
 30
0.0
 11
817.882953
 21
531.412451
 31
0.0
  0
LINE
  5
3C6
  8
0
 62
     1
 10
592.243332
 20
341.611684
 30
0.0
 11
592.243332
 21
619.428668
 31
0.0
  0
LINE
  5
3C7
  8
0
 10
613.640405
 20
227.61333
 30
0.0
 11
613.640405
 21
640.825741
 31
0.0
  0
LINE
  5
3C8
  8
0
 62
     1
 10
401.397067
 20
341.611684
 30
0.0
 11
401.397067
 21
619.428668
 31
0.0
  0
LINE
  5
3C9
  8
0
 10
379.999995
 20
227.61333
 30
0.0
 11
379.999995
 21
640.825741
 31
0.0
  0
LINE
  5
3CA
  8
0
  6
DASHED2
 10
647.648551
 20
-0.000003
 30
0.0
 11
339.38752
 21
-0.000003
 31
0.0
  0
LINE
  5
3CB
  8
0
 10
379.999995
 20
227.61333
 30
0.0
 11
613.640405
 21
227.61333
 31
0.0
  0
LINE
  5
3CC
  8
0
 10
656.479527
 20
175.251652
 30
0.0
 11
562.697852
 21
175.251652
 31
0.0
  0
LINE
  5
3CD
  8
0
 10
656.479527
 20
50.172814
 30
0.0
 11
562.697852
 21
50.172814
 31
0.0
  0
LINE
  5
3CE
  8
0
 10
562.197852
 20
174.751652
 30
0.0
 11
562.197852
 21
50.672814
 31
0.0
  0
LINE
  5
3CF
  8
0
  6
DASHED2
 10
283.323092
 20
19.771351
 30
0.0
 11
339.38752
 21
-0.000003
 31
0.0
  0
LINE
  5
3D0
  8
0
  6
DASHED2
 10
283.323092
 20
50.172814
 30
0.0
 11
283.323092
 21
19.771351
 31
0.0
  0
LINE
  5
3D1
  8
0
 10
562.697852
 20
50.172814
 30
0.0
 11
562.197852
 21
50.672814
 31
0.0
  0
LINE
  5
3D2
  8
0
 62
     1
 10
401.397067
 20
341.611684
 30
0.0
 11
592.243332
 21
341.611684
 31
0.0
  0
LINE
  5
3D3
  8
0
 10
449.478004
 20
287.975692
 30
0.0
 11
449.478004
 21
322.414466
 31
0.0
  0
LINE
  5
3D4
  8
0
 10
425.913323
 20
287.975692
 30
0.0
 11
425.913323
 21
322.414466
 31
0.0
  0
LINE
  5
3D5
  8
0
 10
425.913323
 20
287.975692
 30
0.0
 11
449.478004
 21
287.975692
 31
0.0
  0
LINE
  5
3D6
  8
0
 10
581.288225
 20
227.61333
 30
0.0
 11
581.288225
 21
175.251652
 31
0.0
  0
LINE
  5
3D7
  8
0
 10
562.197852
 20
174.751652
 30
0.0
 11
562.697852
 21
175.251652
 31
0.0
  0
LINE
  5
3D8
  8
0
 10
425.913323
 20
322.414466
 30
0.0
 11
449.478004
 21
322.414466
 31
0.0
  0
LINE
  5
3D9
  8
0
 10
966.38998
 20
176.396168
 30
0.0
 11
966.38998
 21
-0.000003
 31
0.0
  0
LINE
  5
3DA
  8
0
 10
926.815084
 20
176.396168
 30
0.0
 11
926.815084
 21
-0.000003
 31
0.0
  0
LINE
  5
3DB
  8
0
 10
656.979527
 20
174.751652
 30
0.0
 11
656.979527
 21
50.672814
 31
0.0
  0
LINE
  5
3DC
  8
0
 10
663.323092
 20
156.624813
 30
0.0
 11
663.323092
 21
19.771351
 31
0.0
  0
LINE
  5
3DD
  8
0
 10
778.494581
 20
51.967423
 30
0.0
 11
778.494581
 21
115.537409
 31
0.0
  0
LINE
  5
3DE
  8
0
 10
719.38752
 20
115.537409
 30
0.0
 11
719.38752
 21
13.052287
 31
0.0
  0
LINE
  5
3DF
  8
0
 10
719.38752
 20
-0.000003
 30
0.0
 11
719.38752
 21
115.537409
 31
0.0
  0
LINE
  5
3E0
  8
0
 10
867.708023
 20
51.967423
 30
0.0
 11
867.708023
 21
124.428741
 31
0.0
  0
LINE
  5
3E1
  8
0
 10
778.994581
 20
51.467423
 30
0.0
 11
867.208023
 21
51.467423
 31
0.0
  0
LINE
  5
3E2
  8
0
 62
     8
 10
926.815084
 20
44.265699
 30
0.0
 11
719.38752
 21
44.265699
 31
0.0
  0
LINE
  5
3E3
  8
0
 62
     8
 10
926.815084
 20
22.299508
 30
0.0
 11
719.38752
 21
22.299508
 31
0.0
  0
LINE
  5
3E4
  8
0
 10
926.815084
 20
-0.000003
 30
0.0
 11
719.38752
 21
-0.000003
 31
0.0
  0
LINE
  5
3E5
  8
0
 10
663.323092
 20
19.771351
 30
0.0
 11
719.38752
 21
-0.000003
 31
0.0
  0
LINE
  5
3E6
  8
0
 10
656.479527
 20
50.172814
 30
0.0
 11
656.979527
 21
50.672814
 31
0.0
  0
LINE
  5
3E7
  8
0
 62
     8
 10
778.494581
 20
66.231891
 30
0.0
 11
719.38752
 21
66.231891
 31
0.0
  0
LINE
  5
3E8
  8
0
 10
778.994581
 20
51.467423
 30
0.0
 11
778.494581
 21
51.967423
 31
0.0
  0
LINE
  5
3E9
  8
0
 62
     8
 10
926.815084
 20
66.231891
 30
0.0
 11
867.708023
 21
66.231891
 31
0.0
  0
LINE
  5
3EA
  8
0
 10
867.708023
 20
51.967423
 30
0.0
 11
867.208023
 21
51.467423
 31
0.0
  0
LINE
  5
3EB
  8
0
 10
926.815084
 20
-0.000003
 30
0.0
 11
966.38998
 21
33.166694
 31
0.0
  0
LINE
  5
3EC
  8
0
 10
763.585902
 20
512.651055
 30
0.0
 11
817.882953
 21
512.651055
 31
0.0
  0
LINE
  5
3ED
  8
0
 10
763.585902
 20
404.407812
 30
0.0
 11
817.882953
 21
404.407812
 31
0.0
  0
LINE
  5
3EE
  8
0
 10
662.708406
 20
341.837743
 30
0.0
 11
851.664013
 21
341.837743
 31
0.0
  0
LINE
  5
3EF
  8
0
 10
851.981023
 20
338.354301
 30
0.0
 11
662.708406
 21
338.354301
 31
0.0
  0
LINE
  5
3F0
  8
0
 10
763.585902
 20
423.169208
 30
0.0
 11
817.882953
 21
423.169208
 31
0.0
  0
LINE
  5
3F1
  8
0
 10
646.495333
 20
318.001816
 30
0.0
 11
800.007371
 21
318.001816
 31
0.0
  0
LINE
  5
3F2
  8
0
 10
646.495333
 20
327.162745
 30
0.0
 11
800.007371
 21
327.162745
 31
0.0
  0
LINE
  5
3F3
  8
0
 62
     1
 10
798.599164
 20
260.544202
 30
0.0
 11
910.179966
 21
260.544202
 31
0.0
  0
LINE
  5
3F4
  8
0
 10
798.599164
 20
124.928741
 30
0.0
 11
867.208023
 21
124.928741
 31
0.0
  0
LINE
  5
3F5
  8
0
 10
926.815084
 20
176.396168
 30
0.0
 11
798.599164
 21
176.396168
 31
0.0
  0
LINE
  5
3F6
  8
0
 62
     8
 10
926.815084
 20
132.130465
 30
0.0
 11
798.599164
 21
132.130465
 31
0.0
  0
LINE
  5
3F7
  8
0
 62
     8
 10
926.815084
 20
154.096657
 30
0.0
 11
798.599164
 21
154.096657
 31
0.0
  0
LINE
  5
3F8
  8
0
 10
798.599164
 20
116.037409
 30
0.0
 11
798.599164
 21
318.001816
 31
0.0
  0
LINE
  5
3F9
  8
0
 10
710.678483
 20
116.037409
 30
0.0
 11
710.678483
 21
318.001816
 31
0.0
  0
LINE
  5
3FA
  8
0
 62
     1
 10
613.640405
 20
260.544202
 30
0.0
 11
710.678483
 21
260.544202
 31
0.0
  0
LINE
  5
3FB
  8
0
 10
663.323092
 20
156.624813
 30
0.0
 11
710.678483
 21
173.324889
 31
0.0
  0
LINE
  5
3FC
  8
0
 10
656.479527
 20
175.251652
 30
0.0
 11
656.979527
 21
174.751652
 31
0.0
  0
LINE
  5
3FD
  8
0
 10
656.979527
 20
140.606604
 30
0.0
 11
663.323092
 21
140.606604
 31
0.0
  0
LINE
  5
3FE
  8
0
 62
     8
 10
778.494581
 20
88.198082
 30
0.0
 11
719.38752
 21
88.198082
 31
0.0
  0
LINE
  5
3FF
  8
0
 62
     8
 10
778.494581
 20
110.164274
 30
0.0
 11
719.38752
 21
110.164274
 31
0.0
  0
LINE
  5
400
  8
0
 10
711.178483
 20
115.537409
 30
0.0
 11
798.099164
 21
115.537409
 31
0.0
  0
LINE
  5
401
  8
0
 10
710.678483
 20
116.037409
 30
0.0
 11
711.178483
 21
115.537409
 31
0.0
  0
LINE
  5
402
  8
0
 10
798.099164
 20
115.537409
 30
0.0
 11
798.599164
 21
116.037409
 31
0.0
  0
LINE
  5
403
  8
0
 10
613.640405
 20
362.820267
 30
0.0
 11
748.233956
 21
362.820267
 31
0.0
  0
LINE
  5
404
  8
0
 10
646.495333
 20
327.162745
 30
0.0
 11
646.495333
 21
318.001816
 31
0.0
  0
LINE
  5
405
  8
0
 10
670.866807
 20
341.837743
 30
0.0
 11
670.866807
 21
362.820267
 31
0.0
  0
LINE
  5
406
  8
0
 10
661.696293
 20
327.162745
 30
0.0
 11
661.696293
 21
362.820267
 31
0.0
  0
LINE
  5
407
  8
0
 10
654.634779
 20
311.007162
 30
0.0
 11
677.928321
 21
311.007162
 31
0.0
  0
LINE
  5
408
  8
0
 10
662.708406
 20
338.354301
 30
0.0
 11
662.708406
 21
341.837743
 31
0.0
  0
LINE
  5
409
  8
0
 10
670.866807
 20
327.162745
 30
0.0
 11
670.866807
 21
338.354301
 31
0.0
  0
LINE
  5
40A
  8
0
 10
661.696293
 20
311.007162
 30
0.0
 11
661.696293
 21
318.001816
 31
0.0
  0
LINE
  5
40B
  8
0
 10
654.634779
 20
311.007162
 30
0.0
 11
654.634779
 21
318.001816
 31
0.0
  0
LINE
  5
40C
  8
0
 10
670.866807
 20
311.007162
 30
0.0
 11
670.866807
 21
318.001816
 31
0.0
  0
LINE
  5
40D
  8
0
 10
677.928321
 20
311.007162
 30
0.0
 11
677.928321
 21
318.001816
 31
0.0
  0
LINE
  5
40E
  8
0
 10
763.585902
 20
404.407812
 30
0.0
 11
763.585902
 21
423.169208
 31
0.0
  0
LINE
  5
40F
  8
0
 10
748.233956
 20
374.417123
 30
0.0
 11
748.233956
 21
354.081323
 31
0.0
  0
LINE
  5
410
  8
0
 10
992.10427
 20
354.081323
 30
0.0
 11
992.10427
 21
255.44065
 31
0.0
  0
LINE
  5
411
  8
0
 10
983.460832
 20
354.081323
 30
0.0
 11
983.460832
 21
242.459394
 31
0.0
  0
LINE
  5
412
  8
0
 10
974.030032
 20
354.081323
 30
0.0
 11
974.030032
 21
242.459394
 31
0.0
  0
LINE
  5
413
  8
0
 10
910.179966
 20
335.390528
 30
0.0
 11
910.179966
 21
176.396168
 31
0.0
  0
LINE
  5
414
  8
0
 62
     8
 10
926.815084
 20
110.164274
 30
0.0
 11
867.708023
 21
110.164274
 31
0.0
  0
LINE
  5
415
  8
0
 62
     8
 10
926.815084
 20
88.198082
 30
0.0
 11
867.708023
 21
88.198082
 31
0.0
  0
LINE
  5
416
  8
0
 10
867.208023
 20
124.928741
 30
0.0
 11
867.708023
 21
124.428741
 31
0.0
  0
LINE
  5
417
  8
0
 10
926.815084
 20
176.396168
 30
0.0
 11
966.38998
 21
143.229471
 31
0.0
  0
ARC
  5
418
  8
0
 10
997.686762
 20
242.459394
 30
0.0
 40
23.656729
 50
180.0
 51
251.593814
  0
ARC
  5
419
  8
0
 10
997.686762
 20
242.459394
 30
0.0
 40
14.22593
 50
180.0
 51
251.593814
  0
LINE
  5
41A
  8
0
 10
922.136857
 20
341.954251
 30
0.0
 11
859.181401
 21
341.954251
 31
0.0
  0
LINE
  5
41B
  8
0
 10
922.136857
 20
335.390528
 30
0.0
 11
855.899539
 21
335.390528
 31
0.0
  0
LINE
  5
41C
  8
0
 10
817.882953
 20
404.407812
 30
0.0
 11
817.882953
 21
423.169208
 31
0.0
  0
LINE
  5
41D
  8
0
 10
800.007371
 20
318.001816
 30
0.0
 11
800.007371
 21
327.162745
 31
0.0
  0
ARC
  5
41E
  8
0
 10
855.899539
 20
338.67239
 30
0.0
 40
3.281862
 50
180.0
 51
0.0
  0
LINE
  5
41F
  8
0
 10
852.617678
 20
338.67239
 30
0.0
 11
852.617678
 21
354.081323
 31
0.0
  0
LINE
  5
420
  8
0
 10
859.181401
 20
338.67239
 30
0.0
 11
859.181401
 21
354.081323
 31
0.0
  0
ARC
  5
421
  8
0
 10
922.136857
 20
338.67239
 30
0.0
 40
3.281862
 50
270.0
 51
90.0
  0
LINE
  5
422
  8
0
 10
910.179966
 20
354.081323
 30
0.0
 11
910.179966
 21
341.954251
 31
0.0
  0
LINE
  5
423
  8
0
 10
379.999995
 20
640.825741
 30
0.0
 11
613.640405
 21
640.825741
 31
0.0
  0
LINE
  5
424
  8
0
  6
DASHED2
 10
281.375012
 20
877.999997
 30
0.0
 11
450.093179
 21
877.999997
 31
0.0
  0
LINE
  5
425
  8
0
 62
     1
 10
401.397067
 20
619.428668
 30
0.0
 11
592.243332
 21
619.428668
 31
0.0
  0
LINE
  5
426
  8
0
  6
DASHED2
 10
247.211715
 20
641.325741
 30
0.0
 11
247.211715
 21
781.805329
 31
0.0
  0
LINE
  5
427
  8
0
  6
DASHED2
 10
246.711715
 20
640.825741
 30
0.0
 11
247.211715
 21
641.325741
 31
0.0
  0
ARC
  5
428
  8
0
  6
DASHED2
 10
623.67993
 20
702.26742
 30
0.0
 40
384.778632
 50
152.824932
 51
168.070332
  0
LINE
  5
429
  8
0
  6
DASHED2
 10
484.256475
 20
677.081087
 30
0.0
 11
484.256475
 21
781.805329
 31
0.0
  0
ARC
  5
42A
  8
0
  6
DASHED2
 10
107.78826
 20
702.26742
 30
0.0
 40
384.778632
 50
11.929668
 51
27.175068
  0
LINE
  5
42B
  8
0
 10
661.375012
 20
877.999997
 30
0.0
 11
830.093179
 21
877.999997
 31
0.0
  0
LINE
  5
42C
  8
0
 10
627.211715
 20
781.805329
 30
0.0
 11
864.256475
 21
781.805329
 31
0.0
  0
LINE
  5
42D
  8
0
 10
763.585902
 20
531.412451
 30
0.0
 11
817.882953
 21
531.412451
 31
0.0
  0
LINE
  5
42E
  8
0
 62
     8
 10
704.420387
 20
572.999997
 30
0.0
 11
704.420387
 21
767.425877
 31
0.0
  0
LINE
  5
42F
  8
0
 62
     8
 10
687.362656
 20
572.999997
 30
0.0
 11
687.362656
 21
767.425877
 31
0.0
  0
LINE
  5
430
  8
0
 62
     8
 10
670.304926
 20
572.999997
 30
0.0
 11
670.304926
 21
767.425877
 31
0.0
  0
LINE
  5
431
  8
0
 10
634.393915
 20
572.999997
 30
0.0
 11
634.393915
 21
770.304608
 31
0.0
  0
LINE
  5
432
  8
0
 62
     8
 10
653.247196
 20
572.999997
 30
0.0
 11
653.247196
 21
781.805329
 31
0.0
  0
LINE
  5
433
  8
0
 62
     8
 10
721.478117
 20
572.999997
 30
0.0
 11
721.478117
 21
767.425877
 31
0.0
  0
LINE
  5
434
  8
0
 62
     8
 10
755.593578
 20
572.999997
 30
0.0
 11
755.593578
 21
767.425877
 31
0.0
  0
LINE
  5
435
  8
0
 62
     8
 10
738.535847
 20
572.999997
 30
0.0
 11
738.535847
 21
767.425877
 31
0.0
  0
LINE
  5
436
  8
0
 62
     8
 10
789.709039
 20
572.999997
 30
0.0
 11
789.709039
 21
767.425877
 31
0.0
  0
LINE
  5
437
  8
0
 62
     8
 10
772.651308
 20
572.999997
 30
0.0
 11
772.651308
 21
767.425877
 31
0.0
  0
ARC
  5
438
  8
0
 10
1003.67993
 20
702.26742
 30
0.0
 40
384.778632
 50
152.824932
 51
168.070332
  0
LINE
  5
439
  8
0
 10
634.393915
 20
770.304608
 30
0.0
 11
653.247196
 21
781.805329
 31
0.0
  0
LINE
  5
43A
  8
0
 62
     8
 10
823.824499
 20
572.999997
 30
0.0
 11
823.824499
 21
767.425877
 31
0.0
  0
LINE
  5
43B
  8
0
 62
     8
 10
838.220995
 20
572.999997
 30
0.0
 11
838.220995
 21
781.805329
 31
0.0
  0
LINE
  5
43C
  8
0
 10
857.074275
 20
572.999997
 30
0.0
 11
857.074275
 21
770.304608
 31
0.0
  0
LINE
  5
43D
  8
0
 62
     8
 10
806.766769
 20
572.999997
 30
0.0
 11
806.766769
 21
767.425877
 31
0.0
  0
ARC
  5
43E
  8
0
 10
487.78826
 20
702.26742
 30
0.0
 40
384.778632
 50
11.929668
 51
27.175068
  0
LINE
  5
43F
  8
0
 10
857.074275
 20
770.304608
 30
0.0
 11
838.220995
 21
781.805329
 31
0.0
  0
LINE
  5
440
  8
0
 10
1520.572454
 20
597.910132
 30
0.0
 11
1816.064455
 21
597.910132
 31
0.0
  0
LINE
  5
441
  8
0
 10
1520.572454
 20
337.910132
 30
0.0
 11
1816.064455
 21
337.910132
 31
0.0
  0
LINE
  5
442
  8
0
 10
1441.046033
 20
608.612343
 30
0.0
 11
1441.046033
 21
474.226919
 31
0.0
  0
LINE
  5
443
  8
0
 62
     8
 10
1456.969395
 20
474.226919
 30
0.0
 11
1456.969395
 21
620.058763
 31
0.0
  0
LINE
  5
444
  8
0
 10
1431.954402
 20
474.226919
 30
0.0
 11
1431.954402
 21
608.612343
 31
0.0
  0
LINE
  5
445
  8
0
 62
     8
 10
1520.572454
 20
337.910132
 30
0.0
 11
1520.572454
 21
597.910132
 31
0.0
  0
LINE
  5
446
  8
0
 62
     8
 10
1505.656456
 20
342.048712
 30
0.0
 11
1505.656456
 21
593.771551
 31
0.0
  0
LINE
  5
447
  8
0
 10
1469.999995
 20
315.7615
 30
0.0
 11
1469.999995
 21
620.058763
 31
0.0
  0
LINE
  5
448
  8
0
 10
1200.23862
 20
332.20792
 30
0.0
 11
1200.23862
 21
603.612343
 31
0.0
  0
LINE
  5
449
  8
0
 10
1209.330251
 20
603.612343
 30
0.0
 11
1209.330251
 21
332.20792
 31
0.0
  0
LINE
  5
44A
  8
0
 10
1218.421883
 20
332.20792
 30
0.0
 11
1218.421883
 21
603.612343
 31
0.0
  0
POLYLINE
  5
44B
  8
0
 66
     1
 10
0.0
 20
0.0
 30
0.0
 70
     1
  0
VERTEX
  5
55B
  8
0
 10
1353.679697
 20
321.166879
 30
0.0
  0
VERTEX
  5
55C
  8
0
 10
1353.679697
 20
273.397567
 30
0.0
  0
VERTEX
  5
55D
  8
0
 10
1401.449009
 20
273.397567
 30
0.0
  0
VERTEX
  5
55E
  8
0
 10
1401.449009
 20
321.166879
 30
0.0
  0
SEQEND
  5
55F
  8
0
  0
LINE
  5
44C
  8
0
 10
1218.421883
 20
374.417123
 30
0.0
 11
1431.954402
 21
374.417123
 31
0.0
  0
LINE
  5
44D
  8
0
 10
1218.421883
 20
354.081323
 30
0.0
 11
1431.954402
 21
354.081323
 31
0.0
  0
LINE
  5
44E
  8
0
 10
1326.202532
 20
156.640149
 30
0.0
 11
1326.202532
 21
19.756015
 31
0.0
  0
LINE
  5
44F
  8
0
 10
997.862604
 20
176.396168
 30
0.0
 11
997.862604
 21
-0.000003
 31
0.0
  0
LINE
  5
450
  8
0
 10
1276.733926
 20
124.667082
 30
0.0
 11
1276.733926
 21
19.756015
 31
0.0
  0
LINE
  5
451
  8
0
 10
997.862604
 20
-0.000003
 30
0.0
 11
1276.733926
 21
35.099362
 31
0.0
  0
LINE
  5
452
  8
0
 10
1326.202532
 20
19.756015
 30
0.0
 11
1276.733926
 21
19.756015
 31
0.0
  0
LINE
  5
453
  8
0
 10
1170.404346
 20
354.081323
 30
0.0
 11
1200.23862
 21
354.081323
 31
0.0
  0
LINE
  5
454
  8
0
 10
1170.404346
 20
374.417123
 30
0.0
 11
1200.23862
 21
374.417123
 31
0.0
  0
LINE
  5
455
  8
0
 10
1170.404346
 20
354.081323
 30
0.0
 11
1200.23862
 21
354.081323
 31
0.0
  0
LINE
  5
456
  8
0
 10
997.862604
 20
176.396168
 30
0.0
 11
1196.363492
 21
151.412404
 31
0.0
  0
LINE
  5
457
  8
0
 10
1289.371866
 20
139.457405
 30
0.0
 11
1008.291352
 21
232.994154
 31
0.0
  0
LINE
  5
458
  8
0
 10
1299.758979
 20
145.940351
 30
0.0
 11
1011.191302
 21
241.968645
 31
0.0
  0
LINE
  5
459
  8
0
 10
1001.53507
 20
354.081323
 30
0.0
 11
1001.53507
 21
255.44065
 31
0.0
  0
ARC
  5
45A
  8
0
 10
1015.760999
 20
255.44065
 30
0.0
 40
14.22593
 50
180.0
 51
251.593814
  0
LINE
  5
45B
  8
0
 10
1144.957479
 20
337.64011
 30
0.0
 11
1144.957479
 21
418.441391
 31
0.0
  0
LINE
  5
45C
  8
0
 10
1170.404346
 20
337.64011
 30
0.0
 11
1170.404346
 21
418.441391
 31
0.0
  0
LINE
  5
45D
  8
0
 10
1144.957479
 20
337.64011
 30
0.0
 11
1170.404346
 21
337.64011
 31
0.0
  0
LINE
  5
45E
  8
0
 10
1308.233939
 20
145.940351
 30
0.0
 11
1289.871866
 21
145.940351
 31
0.0
  0
LINE
  5
45F
  8
0
 10
1289.371866
 20
109.825864
 30
0.0
 11
1308.233939
 21
109.825864
 31
0.0
  0
LINE
  5
460
  8
0
 10
1276.733926
 20
156.640149
 30
0.0
 11
1326.202532
 21
156.640149
 31
0.0
  0
LINE
  5
461
  8
0
 10
1244.400607
 20
145.366346
 30
0.0
 11
1276.733926
 21
141.296803
 31
0.0
  0
LINE
  5
462
  8
0
 10
1289.371866
 20
145.440351
 30
0.0
 11
1289.371866
 21
109.825864
 31
0.0
  0
LINE
  5
463
  8
0
 10
1276.733926
 20
143.663004
 30
0.0
 11
1276.733926
 21
134.606605
 31
0.0
  0
LINE
  5
464
  8
0
 10
1289.371866
 20
145.440351
 30
0.0
 11
1289.871866
 21
145.940351
 31
0.0
  0
LINE
  5
465
  8
0
 10
1276.733926
 20
156.640149
 30
0.0
 11
1276.733926
 21
153.602528
 31
0.0
  0
LINE
  5
466
  8
0
 10
1308.233939
 20
109.825864
 30
0.0
 11
1308.233939
 21
145.940351
 31
0.0
  0
LINE
  5
467
  8
0
 10
1218.421883
 20
332.20792
 30
0.0
 11
1209.330251
 21
332.20792
 31
0.0
  0
LINE
  5
468
  8
0
 10
1200.23862
 20
332.20792
 30
0.0
 11
1209.330251
 21
332.20792
 31
0.0
  0
LINE
  5
469
  8
0
 10
1373.647098
 20
321.166879
 30
0.0
 11
1373.647098
 21
354.081323
 31
0.0
  0
LINE
  5
46A
  8
0
 10
1383.554111
 20
321.166879
 30
0.0
 11
1383.554111
 21
354.081323
 31
0.0
  0
LINE
  5
46B
  8
0
 10
1469.999995
 20
342.048712
 30
0.0
 11
1520.572454
 21
342.048712
 31
0.0
  0
LINE
  5
46C
  8
0
 10
1431.954402
 20
327.20792
 30
0.0
 11
1431.954402
 21
461.593344
 31
0.0
  0
LINE
  5
46D
  8
0
 62
     8
 10
1456.969395
 20
315.7615
 30
0.0
 11
1456.969395
 21
461.593344
 31
0.0
  0
LINE
  5
46E
  8
0
 10
1441.046033
 20
461.593344
 30
0.0
 11
1441.046033
 21
327.20792
 31
0.0
  0
LINE
  5
46F
  8
0
 10
1456.969395
 20
327.20792
 30
0.0
 11
1441.046033
 21
327.20792
 31
0.0
  0
LINE
  5
470
  8
0
 10
1431.954402
 20
327.20792
 30
0.0
 11
1441.046033
 21
327.20792
 31
0.0
  0
LINE
  5
471
  8
0
 10
1456.969395
 20
315.7615
 30
0.0
 11
1469.999995
 21
315.7615
 31
0.0
  0
LINE
  5
472
  8
0
 10
1423.806882
 20
461.593344
 30
0.0
 11
1457.896176
 21
461.593344
 31
0.0
  0
LINE
  5
473
  8
0
 10
1423.806882
 20
474.226919
 30
0.0
 11
1457.896176
 21
474.226919
 31
0.0
  0
LINE
  5
474
  8
0
 10
1423.806882
 20
474.226919
 30
0.0
 11
1423.806882
 21
461.593344
 31
0.0
  0
LINE
  5
475
  8
0
 10
1457.896176
 20
474.226919
 30
0.0
 11
1457.896176
 21
461.593344
 31
0.0
  0
LINE
  5
476
  8
0
 10
1218.421883
 20
572.999997
 30
0.0
 11
1431.954402
 21
572.999997
 31
0.0
  0
POLYLINE
  5
477
  8
0
 66
     1
 10
0.0
 20
0.0
 30
0.0
 70
     1
  0
VERTEX
  5
560
  8
0
 10
1009.541788
 20
626.131678
 30
0.0
  0
VERTEX
  5
561
  8
0
 10
1009.541788
 20
578.362367
 30
0.0
  0
VERTEX
  5
562
  8
0
 10
1039.378848
 20
578.362367
 30
0.0
  0
VERTEX
  5
563
  8
0
 10
1039.378848
 20
626.131678
 30
0.0
  0
SEQEND
  5
564
  8
0
  0
POLYLINE
  5
478
  8
0
 66
     1
 10
0.0
 20
0.0
 30
0.0
 70
     1
  0
VERTEX
  5
565
  8
0
 10
1054.372416
 20
626.131678
 30
0.0
  0
VERTEX
  5
566
  8
0
 10
1054.372416
 20
578.362367
 30
0.0
  0
VERTEX
  5
567
  8
0
 10
1084.209476
 20
578.362367
 30
0.0
  0
VERTEX
  5
568
  8
0
 10
1084.209476
 20
626.131678
 30
0.0
  0
SEQEND
  5
569
  8
0
  0
LINE
  5
479
  8
0
 10
1218.421883
 20
603.612343
 30
0.0
 11
1209.330251
 21
603.612343
 31
0.0
  0
LINE
  5
47A
  8
0
 10
1200.23862
 20
603.612343
 30
0.0
 11
1209.330251
 21
603.612343
 31
0.0
  0
LINE
  5
47B
  8
0
 10
1469.999995
 20
593.771551
 30
0.0
 11
1520.572454
 21
593.771551
 31
0.0
  0
LINE
  5
47C
  8
0
 10
1456.969395
 20
608.612343
 30
0.0
 11
1441.046033
 21
608.612343
 31
0.0
  0
LINE
  5
47D
  8
0
 10
1431.954402
 20
608.612343
 30
0.0
 11
1441.046033
 21
608.612343
 31
0.0
  0
LINE
  5
47E
  8
0
 10
1456.969395
 20
620.058763
 30
0.0
 11
1469.999995
 21
620.058763
 31
0.0
  0
LINE
  5
47F
  8
0
 10
1816.064455
 20
597.910132
 30
0.0
 11
1816.064455
 21
337.910132
 31
0.0
  0
LINE
  5
480
  8
0
 62
     8
 10
1806.397649
 20
597.910132
 30
0.0
 11
1806.397649
 21
337.910132
 31
0.0
  0
LINE
  5
481
  8
0
 10
1854.999995
 20
353.596664
 30
0.0
 11
1854.999995
 21
582.2236
 31
0.0
  0
LINE
  5
482
  8
0
 10
1854.999995
 20
353.596664
 30
0.0
 11
1816.064455
 21
337.910132
 31
0.0
  0
LINE
  5
483
  8
0
 10
1854.999995
 20
582.2236
 30
0.0
 11
1816.064455
 21
597.910132
 31
0.0
  0
ENDBLK
  5
485
  8
0
  0
BLOCK
  8
0
  2
A$C13B22DFF
 70
     0
 10
0.0
 20
0.0
 30
0.0
  3
A$C13B22DFF
  1

  0
LINE
  5
489
  8
0
 10
788.727067
 20
535.458654
 30
0.0
 11
1158.205023
 21
535.458654
 31
0.0
  0
LINE
  5
48A
  8
0
 10
747.871477
 20
552.845762
 30
0.0
 11
1158.205023
 21
552.845762
 31
0.0
  0
LINE
  5
48B
  8
0
 10
729.701852
 20
558.566749
 30
0.0
 11
1200.23862
 21
558.566749
 31
0.0
  0
LINE
  5
48C
  8
0
 10
896.474636
 20
388.85215
 30
0.0
 11
1200.23862
 21
388.85215
 31
0.0
  0
LINE
  5
48D
  8
0
 10
997.862604
 20
356.429237
 30
0.0
 11
966.38998
 21
356.429237
 31
0.0
  0
LINE
  5
48E
  8
0
 10
997.862604
 20
180.033067
 30
0.0
 11
966.38998
 21
180.033067
 31
0.0
  0
ARC
  5
48F
  8
0
 62
     1
 10
749.086788
 20
293.279748
 30
0.0
 40
156.697898
 50
104.188366
 51
156.234048
  0
ARC
  5
490
  8
0
 10
745.734095
 20
297.419773
 30
0.0
 40
126.954633
 50
43.377557
 51
152.302236
  0
ARC
  5
491
  8
0
 62
     1
 10
718.066507
 20
250.240643
 30
0.0
 40
206.552697
 50
36.667888
 51
67.052397
  0
LINE
  5
492
  8
0
 10
942.210431
 20
346.066088
 30
0.0
 11
808.543214
 21
458.311849
 31
0.0
  0
LINE
  5
493
  8
0
 10
947.822415
 20
348.888346
 30
0.0
 11
813.901097
 21
461.341546
 31
0.0
  0
POLYLINE
  5
494
  8
0
 66
     1
 10
0.0
 20
0.0
 30
0.0
  0
VERTEX
  5
56A
  8
0
 10
646.495333
 20
535.541759
 30
0.0
 42
0.520672
  0
VERTEX
  5
56B
  8
0
 10
581.288225
 20
150.268277
 30
0.0
  0
SEQEND
  5
56C
  8
0
  0
LINE
  5
495
  8
0
  6
DASHED2
 10
139.778611
 20
618.209907
 30
0.0
 11
-0.000005
 21
362.217191
 31
0.0
  0
LINE
  5
496
  8
0
 10
607.483187
 20
570.320949
 30
0.0
 11
467.704571
 21
314.328233
 31
0.0
  0
LINE
  5
497
  8
0
 10
519.778611
 20
618.209907
 30
0.0
 11
379.999995
 21
362.217191
 31
0.0
  0
LINE
  5
498
  8
0
  6
DASHED2
 10
201.288225
 20
0.000003
 30
0.0
 11
546.307472
 21
0.000003
 31
0.0
  0
LINE
  5
499
  8
0
  6
DASHED2
 10
132.144385
 20
290.06295
 30
0.0
 11
-0.000005
 21
362.217191
 31
0.0
  0
POLYLINE
  5
49A
  8
0
  6
DASHED2
 66
     1
 10
0.0
 20
0.0
 30
0.0
  0
VERTEX
  5
56D
  8
0
  6
DASHED2
 10
132.144385
 20
290.06295
 30
0.0
 42
0.172295
  0
VERTEX
  5
56E
  8
0
  6
DASHED2
 10
204.071898
 20
147.567797
 30
0.0
  0
SEQEND
  5
56F
  8
0
  6
DASHED2
  0
LINE
  5
49B
  8
0
  6
DASHED2
 10
201.288225
 20
134.599965
 30
0.0
 11
201.288225
 21
0.000003
 31
0.0
  0
LINE
  5
49C
  8
0
 10
201.288225
 20
134.599965
 30
0.0
 11
204.071898
 21
147.567797
 31
0.0
  0
LINE
  5
49D
  8
0
 10
656.479527
 20
356.429237
 30
0.0
 11
562.697852
 21
356.429237
 31
0.0
  0
LINE
  5
49E
  8
0
 10
656.479527
 20
180.033067
 30
0.0
 11
562.697852
 21
180.033067
 31
0.0
  0
LINE
  5
49F
  8
0
 62
     1
 10
581.288225
 20
122.363876
 30
0.0
 11
910.179966
 21
122.363876
 31
0.0
  0
LINE
  5
4A0
  8
0
 62
     1
 10
581.288225
 20
18.361116
 30
0.0
 11
910.179966
 21
18.361116
 31
0.0
  0
LINE
  5
4A1
  8
0
 10
581.288225
 20
0.000003
 30
0.0
 11
910.179966
 21
0.000003
 31
0.0
  0
LINE
  5
4A2
  8
0
 10
467.704571
 20
314.328233
 30
0.0
 11
379.999995
 21
362.217191
 31
0.0
  0
LINE
  5
4A3
  8
0
 10
562.197852
 20
355.929237
 30
0.0
 11
562.197852
 21
180.533067
 31
0.0
  0
LINE
  5
4A4
  8
0
 10
581.288225
 20
134.599965
 30
0.0
 11
581.288225
 21
0.000003
 31
0.0
  0
LINE
  5
4A5
  8
0
 10
581.288225
 20
134.599965
 30
0.0
 11
591.04089
 21
180.033067
 31
0.0
  0
LINE
  5
4A6
  8
0
 10
562.697852
 20
180.033067
 30
0.0
 11
562.197852
 21
180.533067
 31
0.0
  0
LINE
  5
4A7
  8
0
 10
562.197852
 20
355.929237
 30
0.0
 11
562.697852
 21
356.429237
 31
0.0
  0
LINE
  5
4A8
  8
0
 10
867.708023
 20
384.612578
 30
0.0
 11
778.494581
 21
384.612578
 31
0.0
  0
LINE
  5
4A9
  8
0
 62
     8
 10
926.815084
 20
290.197344
 30
0.0
 11
719.38752
 21
290.197344
 31
0.0
  0
LINE
  5
4AA
  8
0
 62
     8
 10
926.815084
 20
334.129726
 30
0.0
 11
719.38752
 21
334.129726
 31
0.0
  0
LINE
  5
4AB
  8
0
 62
     8
 10
926.815084
 20
312.163535
 30
0.0
 11
719.38752
 21
312.163535
 31
0.0
  0
LINE
  5
4AC
  8
0
 62
     8
 10
926.815084
 20
202.332578
 30
0.0
 11
719.38752
 21
202.332578
 31
0.0
  0
LINE
  5
4AD
  8
0
 62
     8
 10
926.815084
 20
224.298769
 30
0.0
 11
719.38752
 21
224.298769
 31
0.0
  0
LINE
  5
4AE
  8
0
 62
     8
 10
926.815084
 20
246.264961
 30
0.0
 11
719.38752
 21
246.264961
 31
0.0
  0
LINE
  5
4AF
  8
0
 10
926.815084
 20
180.033067
 30
0.0
 11
719.38752
 21
180.033067
 31
0.0
  0
LINE
  5
4B0
  8
0
 62
     8
 10
926.815084
 20
268.231152
 30
0.0
 11
719.38752
 21
268.231152
 31
0.0
  0
LINE
  5
4B1
  8
0
 10
663.323092
 20
199.804421
 30
0.0
 11
719.38752
 21
180.033067
 31
0.0
  0
LINE
  5
4B2
  8
0
 10
656.979527
 20
355.929237
 30
0.0
 11
656.979527
 21
180.533067
 31
0.0
  0
LINE
  5
4B3
  8
0
 10
719.38752
 20
180.033067
 30
0.0
 11
719.38752
 21
343.376947
 31
0.0
  0
LINE
  5
4B4
  8
0
 10
719.38752
 20
356.429237
 30
0.0
 11
719.38752
 21
193.085357
 31
0.0
  0
LINE
  5
4B5
  8
0
 10
656.979527
 20
180.533067
 30
0.0
 11
656.479527
 21
180.033067
 31
0.0
  0
LINE
  5
4B6
  8
0
 10
663.323092
 20
336.657883
 30
0.0
 11
719.38752
 21
356.429237
 31
0.0
  0
LINE
  5
4B7
  8
0
 10
663.323092
 20
336.657883
 30
0.0
 11
663.323092
 21
199.804421
 31
0.0
  0
LINE
  5
4B8
  8
0
 10
656.479527
 20
356.429237
 30
0.0
 11
656.979527
 21
355.929237
 31
0.0
  0
LINE
  5
4B9
  8
0
 10
778.494581
 20
356.429237
 30
0.0
 11
719.38752
 21
356.429237
 31
0.0
  0
LINE
  5
4BA
  8
0
 10
778.494581
 20
344.025208
 30
0.0
 11
778.494581
 21
384.612578
 31
0.0
  0
LINE
  5
4BB
  8
0
 10
926.815084
 20
180.033067
 30
0.0
 11
966.38998
 21
213.199763
 31
0.0
  0
LINE
  5
4BC
  8
0
 10
948.209738
 20
90.555659
 30
0.0
 11
948.209738
 21
197.963373
 31
0.0
  0
LINE
  5
4BD
  8
0
 10
966.38998
 20
356.429237
 30
0.0
 11
966.38998
 21
180.033067
 31
0.0
  0
LINE
  5
4BE
  8
0
 10
926.815084
 20
356.429237
 30
0.0
 11
926.815084
 21
180.033067
 31
0.0
  0
LINE
  5
4BF
  8
0
 10
910.179966
 20
134.599965
 30
0.0
 11
910.179966
 21
0.000003
 31
0.0
  0
LINE
  5
4C0
  8
0
 10
910.179966
 20
90.055659
 30
0.0
 11
947.709738
 21
90.055659
 31
0.0
  0
LINE
  5
4C1
  8
0
 10
910.179966
 20
134.599965
 30
0.0
 11
900.4273
 21
180.033067
 31
0.0
  0
LINE
  5
4C2
  8
0
 10
942.597755
 20
96.167643
 30
0.0
 11
942.597755
 21
193.260115
 31
0.0
  0
LINE
  5
4C3
  8
0
 10
910.179966
 20
95.667643
 30
0.0
 11
942.097755
 21
95.667643
 31
0.0
  0
LINE
  5
4C4
  8
0
 10
942.097755
 20
95.667643
 30
0.0
 11
942.597755
 21
96.167643
 31
0.0
  0
LINE
  5
4C5
  8
0
 10
948.209738
 20
90.555659
 30
0.0
 11
947.709738
 21
90.055659
 31
0.0
  0
LINE
  5
4C6
  8
0
 10
926.815084
 20
356.429237
 30
0.0
 11
867.708023
 21
356.429237
 31
0.0
  0
ARC
  5
4C7
  8
0
 10
768.212089
 20
286.170466
 30
0.0
 40
144.87836
 50
29.009202
 51
37.113212
  0
LINE
  5
4C8
  8
0
 10
867.708023
 20
344.025208
 30
0.0
 11
867.708023
 21
384.612578
 31
0.0
  0
ARC
  5
4C9
  8
0
 10
896.253691
 20
376.096161
 30
0.0
 40
12.757903
 50
89.007685
 51
191.333922
  0
LINE
  5
4CA
  8
0
 10
926.815084
 20
356.429237
 30
0.0
 11
966.38998
 21
323.262541
 31
0.0
  0
LINE
  5
4CB
  8
0
 10
942.597755
 20
343.202189
 30
0.0
 11
942.597755
 21
345.249891
 31
0.0
  0
LINE
  5
4CC
  8
0
 10
942.210431
 20
346.066088
 30
0.0
 11
942.597755
 21
345.249891
 31
0.0
  0
LINE
  5
4CD
  8
0
 10
948.209738
 20
338.498931
 30
0.0
 11
948.209738
 21
348.07215
 31
0.0
  0
LINE
  5
4CE
  8
0
 10
948.209738
 20
348.07215
 30
0.0
 11
947.822415
 21
348.888346
 31
0.0
  0
LINE
  5
4CF
  8
0
  6
DASHED2
 10
227.483187
 20
570.320949
 30
0.0
 11
139.778611
 21
618.209907
 31
0.0
  0
LINE
  5
4D0
  8
0
 10
607.483187
 20
570.320949
 30
0.0
 11
519.778611
 21
618.209907
 31
0.0
  0
LINE
  5
4D1
  8
0
 10
613.640405
 20
568.37283
 30
0.0
 11
550.298232
 21
452.366996
 31
0.0
  0
POLYLINE
  5
4D2
  8
0
  6
DASHED2
 66
     1
 10
0.0
 20
0.0
 30
0.0
  0
VERTEX
  5
570
  8
0
  6
DASHED2
 10
450.033431
 20
558.566749
 30
0.0
  0
VERTEX
  5
571
  8
0
  6
DASHED2
 10
368.730296
 20
558.566749
 30
0.0
  0
SEQEND
  5
572
  8
0
  6
DASHED2
  0
POLYLINE
  5
4D3
  8
0
  6
DASHED2
 66
     1
 10
0.0
 20
0.0
 30
0.0
  0
VERTEX
  5
573
  8
0
  6
DASHED2
 10
369.514761
 20
558.566749
 30
0.0
  0
VERTEX
  5
574
  8
0
  6
DASHED2
 10
309.101546
 20
558.566749
 30
0.0
 42
-0.065507
  0
VERTEX
  5
575
  8
0
  6
DASHED2
 10
233.640405
 20
568.37283
 30
0.0
  0
SEQEND
  5
576
  8
0
  6
DASHED2
  0
LINE
  5
4D4
  8
0
 10
831.319237
 20
535.458654
 30
0.0
 11
788.727067
 21
535.458654
 31
0.0
  0
POLYLINE
  5
4D5
  8
0
 66
     1
 10
0.0
 20
0.0
 30
0.0
  0
VERTEX
  5
577
  8
0
 10
780.903015
 20
558.566749
 30
0.0
  0
VERTEX
  5
578
  8
0
 10
748.730296
 20
558.566749
 30
0.0
 42
0.094706
  0
VERTEX
  5
579
  8
0
 10
660.782582
 20
541.757701
 30
0.0
  0
SEQEND
  5
57A
  8
0
  0
POLYLINE
  5
4D6
  8
0
 66
     1
 10
0.0
 20
0.0
 30
0.0
  0
VERTEX
  5
57B
  8
0
 10
729.701852
 20
558.566749
 30
0.0
  0
VERTEX
  5
57C
  8
0
 10
689.101546
 20
558.566749
 30
0.0
 42
-0.065507
  0
VERTEX
  5
57D
  8
0
 10
613.640405
 20
568.37283
 30
0.0
  0
SEQEND
  5
57E
  8
0
  0
LINE
  5
4D7
  8
0
 10
646.495333
 20
541.757701
 30
0.0
 11
726.213428
 21
541.757701
 31
0.0
  0
LINE
  5
4D8
  8
0
 10
646.495333
 20
465.223816
 30
0.0
 11
710.678483
 21
465.223816
 31
0.0
  0
POLYLINE
  5
4D9
  8
0
 66
     1
 10
0.0
 20
0.0
 30
0.0
 70
     1
  0
VERTEX
  5
57F
  8
0
 10
668.387468
 20
521.628862
 30
0.0
  0
VERTEX
  5
580
  8
0
 10
673.362388
 20
530.245676
 30
0.0
  0
VERTEX
  5
581
  8
0
 10
668.387468
 20
538.862489
 30
0.0
  0
VERTEX
  5
582
  8
0
 10
658.437629
 20
538.862489
 30
0.0
  0
VERTEX
  5
583
  8
0
 10
653.46271
 20
530.245676
 30
0.0
  0
VERTEX
  5
584
  8
0
 10
658.437629
 20
521.628862
 30
0.0
  0
SEQEND
  5
585
  8
0
  0
LINE
  5
4DA
  8
0
 10
646.495333
 20
541.757701
 30
0.0
 11
646.495333
 21
465.223816
 31
0.0
  0
POLYLINE
  5
4DB
  8
0
 66
     1
 10
0.0
 20
0.0
 30
0.0
 70
     1
  0
VERTEX
  5
586
  8
0
 10
668.387468
 20
467.612617
 30
0.0
  0
VERTEX
  5
587
  8
0
 10
673.362388
 20
476.229431
 30
0.0
  0
VERTEX
  5
588
  8
0
 10
668.387468
 20
484.846244
 30
0.0
  0
VERTEX
  5
589
  8
0
 10
658.437629
 20
484.846244
 30
0.0
  0
VERTEX
  5
58A
  8
0
 10
653.46271
 20
476.229431
 30
0.0
  0
VERTEX
  5
58B
  8
0
 10
658.437629
 20
467.612617
 30
0.0
  0
SEQEND
  5
58C
  8
0
  0
LINE
  5
4DC
  8
0
 10
710.678483
 20
532.649565
 30
0.0
 11
710.678483
 21
425.457368
 31
0.0
  0
LINE
  5
4DD
  8
0
 10
798.599164
 20
425.457368
 30
0.0
 11
798.599164
 21
532.649565
 31
0.0
  0
LINE
  5
4DE
  8
0
 10
710.678483
 20
425.457368
 30
0.0
 11
798.599164
 21
425.457368
 31
0.0
  0
ARC
  5
4DF
  8
0
 10
754.369685
 20
495.751976
 30
0.0
 40
52.507618
 50
44.644775
 51
135.355225
  0
LINE
  5
4E0
  8
0
 10
798.599164
 20
532.649565
 30
0.0
 11
710.678483
 21
532.649565
 31
0.0
  0
LINE
  5
4E1
  8
0
 10
729.701852
 20
558.566749
 30
0.0
 11
738.934638
 21
558.566749
 31
0.0
  0
LINE
  5
4E2
  8
0
 10
747.871477
 20
548.25157
 30
0.0
 11
747.871477
 21
552.845762
 31
0.0
  0
CIRCLE
  5
4E3
  8
0
 10
769.815874
 20
575.611396
 30
0.0
 40
17.044647
  0
CIRCLE
  5
4E4
  8
0
 10
769.815874
 20
575.611396
 30
0.0
 40
11.881849
  0
LINE
  5
4E5
  8
0
 10
813.901097
 20
461.341546
 30
0.0
 11
813.901097
 21
535.022964
 31
0.0
  0
LINE
  5
4E6
  8
0
 10
808.289114
 20
458.813382
 30
0.0
 11
808.289114
 21
535.022964
 31
0.0
  0
LINE
  5
4E7
  8
0
 62
     8
 10
1456.969395
 20
314.851372
 30
0.0
 11
1456.969395
 21
619.148634
 31
0.0
  0
LINE
  5
4E8
  8
0
 10
1431.954402
 20
326.297792
 30
0.0
 11
1431.954402
 21
607.702214
 31
0.0
  0
LINE
  5
4E9
  8
0
 10
1441.046033
 20
607.702214
 30
0.0
 11
1441.046033
 21
326.297792
 31
0.0
  0
LINE
  5
4EA
  8
0
 10
1469.999995
 20
314.851372
 30
0.0
 11
1469.999995
 21
619.148634
 31
0.0
  0
LINE
  5
4EB
  8
0
 62
     8
 10
1505.656456
 20
341.138584
 30
0.0
 11
1505.656456
 21
592.861422
 31
0.0
  0
LINE
  5
4EC
  8
0
 62
     8
 10
1520.572454
 20
337.000003
 30
0.0
 11
1520.572454
 21
597.000003
 31
0.0
  0
LINE
  5
4ED
  8
0
 10
1816.064455
 20
597.000003
 30
0.0
 11
1816.064455
 21
337.000003
 31
0.0
  0
LINE
  5
4EE
  8
0
 62
     8
 10
1806.397649
 20
597.000003
 30
0.0
 11
1806.397649
 21
337.000003
 31
0.0
  0
LINE
  5
4EF
  8
0
 10
1854.999995
 20
352.686535
 30
0.0
 11
1854.999995
 21
581.313471
 31
0.0
  0
LINE
  5
4F0
  8
0
 10
1218.421883
 20
331.297792
 30
0.0
 11
1218.421883
 21
602.702214
 31
0.0
  0
LINE
  5
4F1
  8
0
 10
1209.330251
 20
602.702214
 30
0.0
 11
1209.330251
 21
331.297792
 31
0.0
  0
LINE
  5
4F2
  8
0
 10
1200.23862
 20
331.297792
 30
0.0
 11
1200.23862
 21
602.702214
 31
0.0
  0
LINE
  5
4F3
  8
0
 10
1520.572454
 20
337.000003
 30
0.0
 11
1816.064455
 21
337.000003
 31
0.0
  0
LINE
  5
4F4
  8
0
 10
1326.202532
 20
308.7734
 30
0.0
 11
1416.393977
 21
308.7734
 31
0.0
  0
LINE
  5
4F5
  8
0
 10
1326.202532
 20
328.684148
 30
0.0
 11
1416.393977
 21
328.684148
 31
0.0
  0
POLYLINE
  5
4F6
  8
0
 66
     1
 10
0.0
 20
0.0
 30
0.0
 70
     1
  0
VERTEX
  5
58D
  8
0
 10
1353.679697
 20
399.562005
 30
0.0
  0
VERTEX
  5
58E
  8
0
 10
1353.679697
 20
351.792694
 30
0.0
  0
VERTEX
  5
58F
  8
0
 10
1401.449009
 20
351.792694
 30
0.0
  0
VERTEX
  5
590
  8
0
 10
1401.449009
 20
399.562005
 30
0.0
  0
SEQEND
  5
591
  8
0
  0
LINE
  5
4F7
  8
0
 10
997.862604
 20
356.429237
 30
0.0
 11
1276.733926
 21
321.329873
 31
0.0
  0
LINE
  5
4F8
  8
0
 10
1200.23862
 20
347.119044
 30
0.0
 11
1172.570176
 21
388.85215
 31
0.0
  0
LINE
  5
4F9
  8
0
 10
997.862604
 20
180.033067
 30
0.0
 11
1276.733926
 21
215.132431
 31
0.0
  0
LINE
  5
4FA
  8
0
 10
997.862604
 20
356.429237
 30
0.0
 11
997.862604
 21
180.033067
 31
0.0
  0
LINE
  5
4FB
  8
0
 10
1276.733926
 20
199.789085
 30
0.0
 11
1326.202532
 21
199.789085
 31
0.0
  0
LINE
  5
4FC
  8
0
 10
1276.733926
 20
336.673219
 30
0.0
 11
1326.202532
 21
336.673219
 31
0.0
  0
LINE
  5
4FD
  8
0
 62
     8
 10
1234.440896
 20
365.248438
 30
0.0
 11
1325.417436
 21
393.330717
 31
0.0
  0
LINE
  5
4FE
  8
0
 10
1276.733926
 20
336.673219
 30
0.0
 11
1276.733926
 21
199.789085
 31
0.0
  0
LINE
  5
4FF
  8
0
 10
1234.440896
 20
328.684148
 30
0.0
 11
1276.733926
 21
328.684148
 31
0.0
  0
LINE
  5
500
  8
0
 10
1234.440896
 20
365.248438
 30
0.0
 11
1234.440896
 21
326.251555
 31
0.0
  0
LINE
  5
501
  8
0
 10
1218.421883
 20
331.297792
 30
0.0
 11
1209.330251
 21
331.297792
 31
0.0
  0
LINE
  5
502
  8
0
 10
1200.23862
 20
331.297792
 30
0.0
 11
1209.330251
 21
331.297792
 31
0.0
  0
LINE
  5
503
  8
0
 10
1218.421883
 20
365.248438
 30
0.0
 11
1234.440896
 21
365.248438
 31
0.0
  0
LINE
  5
504
  8
0
 10
1326.202532
 20
336.673219
 30
0.0
 11
1326.202532
 21
199.789085
 31
0.0
  0
LINE
  5
505
  8
0
 62
     8
 10
1325.417436
 20
393.330717
 30
0.0
 11
1353.679697
 21
384.606834
 31
0.0
  0
LINE
  5
506
  8
0
 10
1469.999995
 20
341.138584
 30
0.0
 11
1520.572454
 21
341.138584
 31
0.0
  0
LINE
  5
507
  8
0
 10
1456.969395
 20
326.297792
 30
0.0
 11
1441.046033
 21
326.297792
 31
0.0
  0
LINE
  5
508
  8
0
 10
1416.393977
 20
365.248438
 30
0.0
 11
1416.393977
 21
308.7734
 31
0.0
  0
LINE
  5
509
  8
0
 10
1431.954402
 20
326.297792
 30
0.0
 11
1441.046033
 21
326.297792
 31
0.0
  0
LINE
  5
50A
  8
0
 10
1416.393977
 20
365.248438
 30
0.0
 11
1431.954402
 21
365.248438
 31
0.0
  0
LINE
  5
50B
  8
0
 62
     8
 10
1401.449009
 20
369.861592
 30
0.0
 11
1416.393977
 21
365.248438
 31
0.0
  0
LINE
  5
50C
  8
0
 10
1456.969395
 20
314.851372
 30
0.0
 11
1469.999995
 21
314.851372
 31
0.0
  0
LINE
  5
50D
  8
0
 10
1854.999995
 20
352.686535
 30
0.0
 11
1816.064455
 21
337.000003
 31
0.0
  0
LINE
  5
50E
  8
0
 10
1520.572454
 20
597.000003
 30
0.0
 11
1816.064455
 21
597.000003
 31
0.0
  0
LINE
  5
50F
  8
0
 10
1218.421883
 20
567.656409
 30
0.0
 11
1431.954402
 21
567.656409
 31
0.0
  0
LINE
  5
510
  8
0
 10
1174.730316
 20
552.845762
 30
0.0
 11
1200.23862
 21
552.845762
 31
0.0
  0
LINE
  5
511
  8
0
 10
1174.730316
 20
535.458654
 30
0.0
 11
1200.23862
 21
535.458654
 31
0.0
  0
LINE
  5
512
  8
0
 10
1158.205023
 20
512.655868
 30
0.0
 11
1158.205023
 21
555.769951
 31
0.0
  0
LINE
  5
513
  8
0
 10
1174.730316
 20
512.655868
 30
0.0
 11
1174.730316
 21
555.769951
 31
0.0
  0
LINE
  5
514
  8
0
 10
1158.205023
 20
555.769951
 30
0.0
 11
1174.730316
 21
555.769951
 31
0.0
  0
LINE
  5
515
  8
0
 10
1218.421883
 20
602.702214
 30
0.0
 11
1209.330251
 21
602.702214
 31
0.0
  0
LINE
  5
516
  8
0
 10
1200.23862
 20
602.702214
 30
0.0
 11
1209.330251
 21
602.702214
 31
0.0
  0
CIRCLE
  5
517
  8
0
 10
1440.851529
 20
624.509852
 30
0.0
 40
17.044647
  0
LINE
  5
518
  8
0
 10
1469.999995
 20
592.861422
 30
0.0
 11
1520.572454
 21
592.861422
 31
0.0
  0
LINE
  5
519
  8
0
 10
1456.969395
 20
607.702214
 30
0.0
 11
1441.046033
 21
607.702214
 31
0.0
  0
CIRCLE
  5
51A
  8
0
 10
1440.851529
 20
624.509852
 30
0.0
 40
11.881849
  0
LINE
  5
51B
  8
0
 10
1431.954402
 20
607.702214
 30
0.0
 11
1441.046033
 21
607.702214
 31
0.0
  0
LINE
  5
51C
  8
0
 10
1456.969395
 20
619.148634
 30
0.0
 11
1469.999995
 21
619.148634
 31
0.0
  0
LINE
  5
51D
  8
0
 10
1854.999995
 20
581.313471
 30
0.0
 11
1816.064455
 21
597.000003
 31
0.0
  0
ENDBLK
  5
51F
  8
0
  0
ENDSEC
  0
SECTION
  2
ENTITIES
  0
INSERT
  5
235
  8
0
  2
A$C4B960F43
 10
-387.580208
 20
47.748008
 30
0.0
  0
INSERT
  5
236
  8
0
  2
A$C3B483EB8
 10
548.10299
 20
290.892917
 30
0.0
  0
TEXT
  8
0
  40
30
  5
596
  62
5
  72
0
  71
0
 10
801.621
 20
84.4675
 30
0.000000
  1
GI/EMME 2000 t.c.
  0
TEXT
  8
0
  40
30
  5
597
  62
5
  72
0
  71
0
 10
-119.009
 20
84.4675
 30
0.000000
  1
3487653
  0
TEXT
  8
0
  40
30
  5
598
  62
5
  72
0
  71
0
 10
1976.43
 20
84.4675
 30
0.000000
  1
1:1
  0
INSERT
  5
486
  8
0
  2
A$C75A60F5A
 10
-116.911216
 20
1765.929312
 30
0.0
  0
INSERT
  5
520
  8
0
  2
A$C13B22DFF
 10
-116.911216
 20
992.929851
 30
0.0
  0
ENDSEC
  0
EOF
