  0
SECTION
  2
HEADER
  9
$ACADVER
  1
AC1009
  9
$INSBASE
 10
0.0
 20
0.0
 30
0.0
  9
$EXTMIN
 10
-379.089054
 20
92.547227
 30
-0.001526
  9
$EXTMAX
 10
2156.334183
 20
2863.720353
 30
0.0
  9
$LIMMIN
 10
0.0
 20
0.0
  9
$LIMMAX
 10
12.0
 20
9.0
  9
$ORTHOMODE
 70
     0
  9
$REGENMODE
 70
     1
  9
$FILLMODE
 70
     1
  9
$QTEXTMODE
 70
     0
  9
$MIRRTEXT
 70
     1
  9
$DRAGMODE
 70
     2
  9
$LTSCALE
 40
5.0
  9
$OSMODE
 70
   167
  9
$ATTMODE
 70
     1
  9
$TEXTSIZE
 40
0.2
  9
$TRACEWID
 40
0.05
  9
$TEXTSTYLE
  7
STANDARD
  9
$CLAYER
  8
0
  9
$CELTYPE
  6
BYLAYER
  9
$CECOLOR
 62
   256
  9
$DIMSCALE
 40
1.0
  9
$DIMASZ
 40
0.18
  9
$DIMEXO
 40
0.0625
  9
$DIMDLI
 40
0.38
  9
$DIMRND
 40
0.0
  9
$DIMDLE
 40
0.0
  9
$DIMEXE
 40
0.18
  9
$DIMTP
 40
0.0
  9
$DIMTM
 40
0.0
  9
$DIMTXT
 40
0.18
  9
$DIMCEN
 40
0.09
  9
$DIMTSZ
 40
0.0
  9
$DIMTOL
 70
     0
  9
$DIMLIM
 70
     0
  9
$DIMTIH
 70
     1
  9
$DIMTOH
 70
     1
  9
$DIMSE1
 70
     0
  9
$DIMSE2
 70
     0
  9
$DIMTAD
 70
     0
  9
$DIMZIN
 70
     0
  9
$DIMBLK
  1

  9
$DIMASO
 70
     1
  9
$DIMSHO
 70
     1
  9
$DIMPOST
  1

  9
$DIMAPOST
  1

  9
$DIMALT
 70
     0
  9
$DIMALTD
 70
     2
  9
$DIMALTF
 40
25.4
  9
$DIMLFAC
 40
1.0
  9
$DIMTOFL
 70
     0
  9
$DIMTVP
 40
0.0
  9
$DIMTIX
 70
     0
  9
$DIMSOXD
 70
     0
  9
$DIMSAH
 70
     0
  9
$DIMBLK1
  1

  9
$DIMBLK2
  1

  9
$DIMSTYLE
  2
STANDARD
  9
$DIMCLRD
 70
     0
  9
$DIMCLRE
 70
     0
  9
$DIMCLRT
 70
     0
  9
$DIMTFAC
 40
1.0
  9
$DIMGAP
 40
0.09
  9
$LUNITS
 70
     2
  9
$LUPREC
 70
     4
  9
$SKETCHINC
 40
0.1
  9
$FILLETRAD
 40
0.5
  9
$AUNITS
 70
     0
  9
$AUPREC
 70
     0
  9
$MENU
  1
.
  9
$ELEVATION
 40
0.0
  9
$PELEVATION
 40
0.0
  9
$THICKNESS
 40
0.0
  9
$LIMCHECK
 70
     0
  9
$BLIPMODE
 70
     0
  9
$CHAMFERA
 40
0.5
  9
$CHAMFERB
 40
0.5
  9
$SKPOLY
 70
     1
  9
$TDCREATE
 40
2451214.878023
  9
$TDUPDATE
 40
2451225.504484
  9
$TDINDWG
 40
0.001913
  9
$TDUSRTIMER
 40
0.001913
  9
$USRTIMER
 70
     1
  9
$ANGBASE
 50
0.0
  9
$ANGDIR
 70
     0
  9
$PDMODE
 70
     0
  9
$PDSIZE
 40
0.0
  9
$PLINEWID
 40
0.0
  9
$COORDS
 70
     1
  9
$SPLFRAME
 70
     0
  9
$SPLINETYPE
 70
     6
  9
$SPLINESEGS
 70
     8
  9
$ATTDIA
 70
     0
  9
$ATTREQ
 70
     1
  9
$HANDLING
 70
     1
  9
$HANDSEED
  5
591
  9
$SURFTAB1
 70
     6
  9
$SURFTAB2
 70
     6
  9
$SURFTYPE
 70
     6
  9
$SURFU
 70
     6
  9
$SURFV
 70
     6
  9
$UCSNAME
  2

  9
$UCSORG
 10
0.0
 20
0.0
 30
0.0
  9
$UCSXDIR
 10
1.0
 20
0.0
 30
0.0
  9
$UCSYDIR
 10
0.0
 20
1.0
 30
0.0
  9
$PUCSNAME
  2

  9
$PUCSORG
 10
0.0
 20
0.0
 30
0.0
  9
$PUCSXDIR
 10
1.0
 20
0.0
 30
0.0
  9
$PUCSYDIR
 10
0.0
 20
1.0
 30
0.0
  9
$USERI1
 70
     0
  9
$USERI2
 70
     0
  9
$USERI3
 70
     0
  9
$USERI4
 70
     0
  9
$USERI5
 70
     0
  9
$USERR1
 40
0.0
  9
$USERR2
 40
0.0
  9
$USERR3
 40
0.0
  9
$USERR4
 40
0.0
  9
$USERR5
 40
0.0
  9
$WORLDVIEW
 70
     1
  9
$SHADEDGE
 70
     3
  9
$SHADEDIF
 70
    70
  9
$TILEMODE
 70
     1
  9
$MAXACTVP
 70
    48
  9
$PLIMCHECK
 70
     0
  9
$PEXTMIN
 10
1.000000E+020
 20
1.000000E+020
 30
1.000000E+020
  9
$PEXTMAX
 10
-1.000000E+020
 20
-1.000000E+020
 30
-1.000000E+020
  9
$PLIMMIN
 10
0.0
 20
0.0
  9
$PLIMMAX
 10
12.0
 20
9.0
  9
$UNITMODE
 70
     0
  9
$VISRETAIN
 70
     1
  9
$PLINEGEN
 70
     0
  9
$PSLTSCALE
 70
     1
  0
ENDSEC
  0
SECTION
  2
TABLES
  0
TABLE
  2
VPORT
 70
     7
  0
VPORT
  2
*ACTIVE
 70
     0
 10
0.0
 20
0.0
 11
1.0
 21
1.0
 12
888.622564
 22
1478.13379
 13
0.0
 23
0.0
 14
0.5
 24
0.5
 15
0.5
 25
0.5
 16
0.0
 26
0.0
 36
1.0
 17
0.0
 27
0.0
 37
0.0
 40
2812.740723
 41
1.756892
 42
50.0
 43
0.0
 44
0.0
 50
0.0
 51
0.0
 71
     0
 72
   100
 73
     1
 74
     1
 75
     0
 76
     0
 77
     0
 78
     0
  0
ENDTAB
  0
TABLE
  2
LTYPE
 70
     2
  0
LTYPE
  2
CONTINUOUS
 70
     0
  3
Solid line
 72
    65
 73
     0
 40
0.0
  0
LTYPE
  2
DASHED2
 70
     0
  3
Dashed (.5x) _ _ _ _ _ _ _ _ _ _ _ _ _ _ _ _ _
 72
    65
 73
     2
 40
9.525
 49
6.35
 49
-3.175
  0
ENDTAB
  0
TABLE
  2
LAYER
 70
     3
  0
LAYER
  2
0
 70
     0
 62
     7
  6
CONTINUOUS
  0
LAYER
  2
CONTORNO_PAGINA
 70
     0
 62
     7
  6
CONTINUOUS
  0
LAYER
  2
LAYER1
 70
     0
 62
     7
  6
CONTINUOUS
  0
ENDTAB
  0
TABLE
  2
STYLE
 70
     2
  0
STYLE
  2
STANDARD
 70
     0
 40
0.0
 41
1.0
 50
0.0
 71
     0
 42
0.2
  3
txt
  4

  0
STYLE
  2
SIMPLEX_INCLINATO
 70
     0
 40
2.0
 41
1.0
 50
15.0
 71
     0
 42
89.952478
  3
simplex.shx
  4

  0
ENDTAB
  0
TABLE
  2
VIEW
 70
     0
  0
ENDTAB
  0
TABLE
  2
UCS
 70
     0
  0
ENDTAB
  0
TABLE
  2
APPID
 70
     1
  0
APPID
  2
ACAD
 70
     0
  0
ENDTAB
  0
TABLE
  2
DIMSTYLE
 70
     1
  0
DIMSTYLE
  2
STANDARD
 70
     0
  3

  4

  5

  6

  7

 40
1.0
 41
0.18
 42
0.0625
 43
0.38
 44
0.18
 45
0.0
 46
0.0
 47
0.0
 48
0.0
140
0.18
141
0.09
142
0.0
143
25.4
144
1.0
145
0.0
146
1.0
147
0.09
 71
     0
 72
     0
 73
     1
 74
     1
 75
     0
 76
     0
 77
     0
 78
     0
170
     0
171
     2
172
     0
173
     0
174
     0
175
     0
176
     0
177
     0
178
     0
  0
ENDTAB
  0
ENDSEC
  0
SECTION
  2
BLOCKS
  0
BLOCK
  8
0
  2
$MODEL_SPACE
 70
     0
 10
0.0
 20
0.0
 30
0.0
  3
$MODEL_SPACE
  1

  0
ENDBLK
  5
1B
  8
0
  0
BLOCK
 67
     1
  8
0
  2
$PAPER_SPACE
 70
     0
 10
0.0
 20
0.0
 30
0.0
  3
$PAPER_SPACE
  1

  0
ENDBLK
  5
18
 67
     1
  8
0
  0
BLOCK
  8
0
  2
A$C4B960F43
 70
     0
 10
0.0
 20
0.0
 30
0.0
  3
A$C4B960F43
  1

  0
LINE
  5
59
  8
CONTORNO_PAGINA
 62
   150
 10
2535.268496
 20
-0.000004
 30
0.0
 11
2535.268496
 21
2770.947445
 31
0.0
  0
LINE
  5
5A
  8
CONTORNO_PAGINA
 62
     5
 10
2505.268496
 20
29.999996
 30
0.0
 11
2505.268496
 21
2740.947445
 31
0.0
  0
LINE
  5
5B
  8
CONTORNO_PAGINA
 62
     5
 10
29.999998
 20
29.999996
 30
0.0
 11
29.999998
 21
2740.947445
 31
0.0
  0
LINE
  5
5C
  8
CONTORNO_PAGINA
 62
   150
 10
-0.000002
 20
-0.000004
 30
0.0
 11
-0.000002
 21
2770.947445
 31
0.0
  0
LINE
  5
5D
  8
CONTORNO_PAGINA
 62
   150
 10
-0.000002
 20
2770.947445
 30
0.0
 11
2535.268496
 21
2770.947445
 31
0.0
  0
LINE
  5
5E
  8
CONTORNO_PAGINA
 62
     5
 10
29.999998
 20
2740.947445
 30
0.0
 11
2505.268496
 21
2740.947445
 31
0.0
  0
LINE
  5
5F
  8
LAYER1
 62
   150
 10
29.999998
 20
142.021623
 30
0.0
 11
2505.268496
 21
142.021623
 31
0.0
  0
LINE
  5
60
  8
LAYER1
 62
     4
 10
29.999998
 20
197.314352
 30
0.0
 11
2505.268496
 21
197.314352
 31
0.0
  0
LINE
  5
61
  8
CONTORNO_PAGINA
 62
   150
 10
-0.000002
 20
-0.000004
 30
0.0
 11
2535.268496
 21
-0.000004
 31
0.0
  0
LINE
  5
62
  8
CONTORNO_PAGINA
 62
     5
 10
29.999998
 20
29.999996
 30
0.0
 11
2505.268496
 21
29.999996
 31
0.0
  0
TEXT
  8
0
  40
25
  5
58B
  62
5
  72
0
  71
0
 10
605.154
 20
152.107
 30
0.000000
  1
Denominazione commerciale
  7
SIMPLEX_INCLINATO
  0
LINE
  5
64
  8
LAYER1
 62
     4
 10
588.132925
 20
29.999996
 30
0.0
 11
588.132925
 21
197.314352
 31
0.0
  0
TEXT
  8
0
  40
25
  5
58C
  62
5
  72
0
  71
0
 10
47.0215
 20
152.107
 30
0.000000
  1
Codice n.
  7
SIMPLEX_INCLINATO
  0
LINE
  5
66
  8
LAYER1
 62
     4
 10
2220.4585
 20
29.999996
 30
0.0
 11
2220.4585
 21
197.314352
 31
0.0
  0
TEXT
  8
0
  40
25
  5
58D
  62
5
  72
0
  71
0
 10
2237.48
 20
152.107
 30
0.000000
  1
scala
  7
SIMPLEX_INCLINATO
  0
ENDBLK
  5
69
  8
0
  0
BLOCK
  8
0
  2
A$C7C2F2BA7
 70
     0
 10
0.0
 20
0.0
 30
0.0
  3
A$C7C2F2BA7
  1

  0
LINE
  5
1DD
  8
0
 10
723.244641
 20
278.374467
 30
0.0
 11
723.244641
 21
645.79582
 31
0.0
  0
LINE
  5
1DE
  8
0
 10
783.46057
 20
397.268631
 30
0.0
 11
783.46057
 21
195.563035
 31
0.0
  0
ARC
  5
1DF
  8
0
 10
883.572176
 20
296.415833
 30
0.0
 40
101.427798
 50
295.539602
 51
64.460398
  0
ARC
  5
1E0
  8
0
 10
883.572176
 20
296.415833
 30
0.0
 40
78.69074
 50
303.75948
 51
56.24052
  0
LINE
  5
1E1
  8
0
 10
927.301234
 20
397.268631
 30
0.0
 11
927.301234
 21
195.563035
 31
0.0
  0
LINE
  5
1E2
  8
0
 10
110.623842
 20
56.41347
 30
0.0
 11
110.623842
 21
329.014944
 31
0.0
  0
LINE
  5
1E3
  8
0
 10
-0.000026
 20
95.701261
 30
0.0
 11
-0.000026
 21
289.727153
 31
0.0
  0
LINE
  5
1E4
  8
0
 10
248.050369
 20
278.374467
 30
0.0
 11
248.050369
 21
645.79582
 31
0.0
  0
ARC
  5
1E5
  8
0
 10
202.092437
 20
489.351917
 30
0.0
 40
442.495427
 50
242.824932
 51
258.070332
  0
LINE
  5
1E6
  8
0
 10
926.726234
 20
194.988035
 30
0.0
 11
784.03557
 21
194.988035
 31
0.0
  0
LINE
  5
1E7
  8
0
 10
610.681368
 20
0.000012
 30
0.0
 11
610.681368
 21
257.720276
 31
0.0
  0
ARC
  5
1E8
  8
0
 10
485.647505
 20
150.179637
 30
0.0
 40
125.033863
 50
180.0
 51
0.0
  0
LINE
  5
1E9
  8
0
 10
823.302376
 20
0.000012
 30
0.0
 11
823.302376
 21
73.9974
 31
0.0
  0
LINE
  5
1EA
  8
0
 10
610.681368
 20
0.000012
 30
0.0
 11
823.302376
 21
0.000012
 31
0.0
  0
LINE
  5
1EB
  8
0
 10
702.590449
 20
257.720276
 30
0.0
 11
268.70456
 21
257.720276
 31
0.0
  0
LINE
  5
1EC
  8
0
 10
360.613642
 20
57.445911
 30
0.0
 11
360.613642
 21
257.720276
 31
0.0
  0
LINE
  5
1ED
  8
0
 10
337.876137
 20
57.445911
 30
0.0
 11
337.876137
 21
257.720276
 31
0.0
  0
LINE
  5
1EE
  8
0
 62
     8
 10
337.876137
 20
164.819832
 30
0.0
 11
127.160212
 21
164.819832
 31
0.0
  0
LINE
  5
1EF
  8
0
 62
     8
 10
337.876137
 20
86.354272
 30
0.0
 11
110.623842
 21
86.354272
 31
0.0
  0
LINE
  5
1F0
  8
0
 10
337.876137
 20
64.673
 30
0.0
 11
123.849672
 21
64.673
 31
0.0
  0
LINE
  5
1F1
  8
0
 62
     8
 10
337.876137
 20
105.970662
 30
0.0
 11
127.160212
 21
105.970662
 31
0.0
  0
LINE
  5
1F2
  8
0
 62
     8
 10
337.876137
 20
125.587052
 30
0.0
 11
127.160212
 21
125.587052
 31
0.0
  0
LINE
  5
1F3
  8
0
 62
     8
 10
337.876137
 20
145.203442
 30
0.0
 11
127.160212
 21
145.203442
 31
0.0
  0
LINE
  5
1F4
  8
0
 10
123.849672
 20
64.673
 30
0.0
 11
110.623842
 21
86.354272
 31
0.0
  0
LINE
  5
1F5
  8
0
 10
360.613642
 20
57.445911
 30
0.0
 11
337.876137
 21
57.445911
 31
0.0
  0
LINE
  5
1F6
  8
0
 62
     8
 10
337.876137
 20
184.436222
 30
0.0
 11
127.160212
 21
184.436222
 31
0.0
  0
LINE
  5
1F7
  8
0
 62
     8
 10
255.022761
 20
262.901782
 30
0.0
 11
127.160212
 21
262.901782
 31
0.0
  0
LINE
  5
1F8
  8
0
 62
     8
 10
337.876137
 20
204.052612
 30
0.0
 11
127.160212
 21
204.052612
 31
0.0
  0
LINE
  5
1F9
  8
0
 62
     8
 10
337.876137
 20
223.669002
 30
0.0
 11
127.160212
 21
223.669002
 31
0.0
  0
LINE
  5
1FA
  8
0
 62
     8
 10
337.876137
 20
243.285392
 30
0.0
 11
127.160212
 21
243.285392
 31
0.0
  0
LINE
  5
1FB
  8
0
 62
     8
 10
248.050369
 20
282.518172
 30
0.0
 11
127.160212
 21
282.518172
 31
0.0
  0
ARC
  5
1FC
  8
0
 10
268.70456
 20
278.374467
 30
0.0
 40
20.654192
 50
180.0
 51
270.0
  0
LINE
  5
1FD
  8
0
 10
823.302376
 20
73.9974
 30
0.0
 11
704.917989
 21
257.851841
 31
0.0
  0
ARC
  5
1FE
  8
0
 10
702.590449
 20
278.374467
 30
0.0
 40
20.654192
 50
270.0
 51
0.0
  0
LINE
  5
1FF
  8
0
 10
783.46057
 20
222.901744
 30
0.0
 11
727.422454
 21
222.901744
 31
0.0
  0
LINE
  5
200
  8
0
 10
783.46057
 20
195.563035
 30
0.0
 11
784.03557
 21
194.988035
 31
0.0
  0
LINE
  5
201
  8
0
 10
840.418117
 20
194.988035
 30
0.0
 11
839.843117
 21
195.563035
 31
0.0
  0
LINE
  5
202
  8
0
 10
927.301234
 20
195.563035
 30
0.0
 11
926.726234
 21
194.988035
 31
0.0
  0
ARC
  5
203
  8
0
 10
202.092437
 20
-103.923503
 30
0.0
 40
442.495427
 50
101.929668
 51
117.175068
  0
LINE
  5
204
  8
0
 10
926.726234
 20
397.843631
 30
0.0
 11
784.03557
 21
397.843631
 31
0.0
  0
LINE
  5
205
  8
0
 10
918.225591
 20
430.254473
 30
0.0
 11
816.310905
 21
430.254473
 31
0.0
  0
LINE
  5
206
  8
0
 62
     1
 10
592.146533
 20
346.152491
 30
0.0
 11
592.146533
 21
641.843378
 31
0.0
  0
LINE
  5
207
  8
0
 10
852.13195
 20
477.800981
 30
0.0
 11
852.13195
 21
599.922008
 31
0.0
  0
LINE
  5
208
  8
0
 62
     1
 10
272.657002
 20
346.152491
 30
0.0
 11
272.657002
 21
641.843378
 31
0.0
  0
LINE
  5
209
  8
0
 62
     1
 10
592.146533
 20
346.152491
 30
0.0
 11
272.657002
 21
346.152491
 31
0.0
  0
LINE
  5
20A
  8
0
 62
     1
 10
723.244641
 20
322.132324
 30
0.0
 11
248.050369
 21
322.132324
 31
0.0
  0
LINE
  5
20B
  8
0
 10
248.050369
 20
320.755414
 30
0.0
 11
123.849672
 21
320.755414
 31
0.0
  0
LINE
  5
20C
  8
0
 62
     8
 10
248.050369
 20
299.074141
 30
0.0
 11
110.623842
 21
299.074141
 31
0.0
  0
LINE
  5
20D
  8
0
 10
123.849672
 20
320.755414
 30
0.0
 11
110.623842
 21
299.074141
 31
0.0
  0
LINE
  5
20E
  8
0
 10
614.223335
 20
365.161731
 30
0.0
 11
614.223335
 21
405.447035
 31
0.0
  0
LINE
  5
20F
  8
0
 10
653.827925
 20
365.161731
 30
0.0
 11
653.827925
 21
405.447035
 31
0.0
  0
LINE
  5
210
  8
0
 10
816.310905
 20
397.843631
 30
0.0
 11
816.310905
 21
430.254473
 31
0.0
  0
LINE
  5
211
  8
0
 10
653.827925
 20
365.161731
 30
0.0
 11
614.223335
 21
365.161731
 31
0.0
  0
LINE
  5
212
  8
0
 10
783.46057
 20
369.929922
 30
0.0
 11
723.244641
 21
369.929922
 31
0.0
  0
LINE
  5
213
  8
0
 10
784.03557
 20
397.843631
 30
0.0
 11
783.46057
 21
397.268631
 31
0.0
  0
LINE
  5
214
  8
0
 10
839.843117
 20
397.268631
 30
0.0
 11
840.418117
 21
397.843631
 31
0.0
  0
LINE
  5
215
  8
0
 10
653.827925
 20
405.447035
 30
0.0
 11
614.223335
 21
405.447035
 31
0.0
  0
LINE
  5
216
  8
0
 10
851.55695
 20
477.225981
 30
0.0
 11
723.244641
 21
477.225981
 31
0.0
  0
LINE
  5
217
  8
0
 10
852.13195
 20
477.800981
 30
0.0
 11
851.55695
 21
477.225981
 31
0.0
  0
LINE
  5
218
  8
0
 62
     1
 10
592.146533
 20
641.843378
 30
0.0
 11
272.657002
 21
641.843378
 31
0.0
  0
LINE
  5
219
  8
0
 10
702.590449
 20
666.450012
 30
0.0
 11
268.70456
 21
666.450012
 31
0.0
  0
ARC
  5
21A
  8
0
 10
268.70456
 20
645.79582
 30
0.0
 40
20.654192
 50
90.0
 51
180.0
  0
LINE
  5
21B
  8
0
 10
851.55695
 20
600.497008
 30
0.0
 11
723.244641
 21
600.497008
 31
0.0
  0
LINE
  5
21C
  8
0
 10
852.13195
 20
599.922008
 30
0.0
 11
851.55695
 21
600.497008
 31
0.0
  0
ARC
  5
21D
  8
0
 10
702.590449
 20
645.79582
 30
0.0
 40
20.654192
 50
0.0
 51
90.0
  0
LINE
  5
21E
  8
0
 10
918.225591
 20
397.843631
 30
0.0
 11
918.225591
 21
430.254473
 31
0.0
  0
LINE
  5
21F
  8
0
 10
926.726234
 20
397.843631
 30
0.0
 11
927.301234
 21
397.268631
 31
0.0
  0
ENDBLK
  5
221
  8
0
  0
BLOCK
  8
0
  2
A$C0B3C676A
 70
     0
 10
0.0
 20
0.0
 30
0.0
  3
A$C0B3C676A
  1

  0
LINE
  5
3AD
  8
0
 10
744.686466
 20
658.949998
 30
0.0
 11
1463.881253
 21
658.949998
 31
0.0
  0
LINE
  5
3AE
  8
0
 10
899.46905
 20
430.579693
 30
0.0
 11
1400.307941
 21
430.579693
 31
0.0
  0
LINE
  5
3AF
  8
0
 10
899.46905
 20
407.193524
 30
0.0
 11
1400.307941
 21
407.193524
 31
0.0
  0
LINE
  5
3B0
  8
0
 10
1104.837347
 20
-0.000002
 30
0.0
 11
1150.348478
 21
38.141699
 31
0.0
  0
LINE
  5
3B1
  8
0
 10
1104.837347
 20
202.855594
 30
0.0
 11
1150.348478
 21
164.713893
 31
0.0
  0
LINE
  5
3B2
  8
0
  6
DASHED2
 10
323.581264
 20
984.999998
 30
0.0
 11
517.607156
 21
984.999998
 31
0.0
  0
LINE
  5
3B3
  8
0
  6
DASHED2
 10
325.821556
 20
22.737056
 30
0.0
 11
390.295649
 21
-0.000002
 31
0.0
  0
LINE
  5
3B4
  8
0
  6
DASHED2
 10
-0.000006
 20
261.755331
 30
0.0
 11
-0.000006
 21
736.949603
 31
0.0
  0
LINE
  5
3B5
  8
0
  6
DASHED2
 10
325.821556
 20
57.698738
 30
0.0
 11
325.821556
 21
22.737056
 31
0.0
  0
LINE
  5
3B6
  8
0
  6
DASHED2
 10
-0.000006
 20
261.755331
 30
0.0
 11
231.481459
 21
261.755331
 31
0.0
  0
LINE
  5
3B7
  8
0
  6
DASHED2
 10
325.821556
 20
57.698738
 30
0.0
 11
210.10253
 21
57.698738
 31
0.0
  0
LINE
  5
3B8
  8
0
  6
DASHED2
 10
209.52753
 20
200.964402
 30
0.0
 11
209.52753
 21
58.273738
 31
0.0
  0
LINE
  5
3B9
  8
0
  6
DASHED2
 10
231.481459
 20
261.755331
 30
0.0
 11
231.481459
 21
201.539402
 31
0.0
  0
LINE
  5
3BA
  8
0
  6
DASHED2
 10
231.481459
 20
201.539402
 30
0.0
 11
210.10253
 21
201.539402
 31
0.0
  0
LINE
  5
3BB
  8
0
  6
DASHED2
 10
209.52753
 20
200.964402
 30
0.0
 11
210.10253
 21
201.539402
 31
0.0
  0
ARC
  5
3BC
  8
0
  6
DASHED2
 10
717.23192
 20
782.907535
 30
0.0
 40
442.495427
 50
152.824932
 51
168.070332
  0
LINE
  5
3BD
  8
0
  6
DASHED2
 10
-0.000006
 20
736.949603
 30
0.0
 11
292.553003
 21
736.949603
 31
0.0
  0
LINE
  5
3BE
  8
0
  6
DASHED2
 10
292.553003
 20
736.949603
 30
0.0
 11
292.553003
 21
861.1503
 31
0.0
  0
LINE
  5
3BF
  8
0
  6
DASHED2
 10
284.293473
 20
874.37613
 30
0.0
 11
314.234275
 21
874.37613
 31
0.0
  0
LINE
  5
3C0
  8
0
  6
DASHED2
 10
292.553003
 20
861.1503
 30
0.0
 11
314.234275
 21
874.37613
 31
0.0
  0
LINE
  5
3C1
  8
0
 62
     1
 10
500.606628
 20
392.853438
 30
0.0
 11
500.606628
 21
712.34297
 31
0.0
  0
LINE
  5
3C2
  8
0
 10
475.999994
 20
261.755331
 30
0.0
 11
475.999994
 21
736.949603
 31
0.0
  0
LINE
  5
3C3
  8
0
 62
     1
 10
720.079833
 20
392.853438
 30
0.0
 11
720.079833
 21
712.34297
 31
0.0
  0
LINE
  5
3C4
  8
0
 10
744.686466
 20
261.755331
 30
0.0
 11
744.686466
 21
736.949603
 31
0.0
  0
LINE
  5
3C5
  8
0
 10
899.46905
 20
417.243308
 30
0.0
 11
899.46905
 21
658.949998
 31
0.0
  0
LINE
  5
3C6
  8
0
 10
710.541995
 20
-0.000002
 30
0.0
 11
763.70183
 21
5.873816
 31
0.0
  0
LINE
  5
3C7
  8
0
 10
793.951456
 20
201.539402
 30
0.0
 11
686.10253
 21
201.539402
 31
0.0
  0
LINE
  5
3C8
  8
0
 10
793.951456
 20
57.698738
 30
0.0
 11
686.10253
 21
57.698738
 31
0.0
  0
LINE
  5
3C9
  8
0
 10
475.999994
 20
261.755331
 30
0.0
 11
744.686466
 21
261.755331
 31
0.0
  0
LINE
  5
3CA
  8
0
  6
DASHED2
 10
628.837347
 20
-0.000002
 30
0.0
 11
390.295649
 21
-0.000002
 31
0.0
  0
LINE
  5
3CB
  8
0
  6
DASHED2
 10
628.837347
 20
-0.000002
 30
0.0
 11
674.348478
 21
38.141699
 31
0.0
  0
LINE
  5
3CC
  8
0
 10
710.541995
 20
-0.000002
 30
0.0
 11
674.348478
 21
-0.000002
 31
0.0
  0
LINE
  5
3CD
  8
0
 10
674.348478
 20
38.141699
 30
0.0
 11
674.348478
 21
-0.000002
 31
0.0
  0
LINE
  5
3CE
  8
0
 10
528.800322
 20
331.172047
 30
0.0
 11
555.899705
 21
331.172047
 31
0.0
  0
LINE
  5
3CF
  8
0
 10
528.800322
 20
370.776637
 30
0.0
 11
555.899705
 21
370.776637
 31
0.0
  0
LINE
  5
3D0
  8
0
 62
     1
 10
500.606628
 20
392.853438
 30
0.0
 11
720.079833
 21
392.853438
 31
0.0
  0
LINE
  5
3D1
  8
0
 10
528.800322
 20
331.172047
 30
0.0
 11
528.800322
 21
370.776637
 31
0.0
  0
LINE
  5
3D2
  8
0
 10
685.52753
 20
200.964402
 30
0.0
 11
685.52753
 21
58.273738
 31
0.0
  0
LINE
  5
3D3
  8
0
 10
686.10253
 20
57.698738
 30
0.0
 11
685.52753
 21
58.273738
 31
0.0
  0
LINE
  5
3D4
  8
0
 10
707.481459
 20
261.755331
 30
0.0
 11
707.481459
 21
201.539402
 31
0.0
  0
LINE
  5
3D5
  8
0
 10
685.52753
 20
200.964402
 30
0.0
 11
686.10253
 21
201.539402
 31
0.0
  0
LINE
  5
3D6
  8
0
 10
555.899705
 20
331.172047
 30
0.0
 11
555.899705
 21
370.776637
 31
0.0
  0
LINE
  5
3D7
  8
0
 10
866.295649
 20
132.868022
 30
0.0
 11
866.295649
 21
15.010131
 31
0.0
  0
LINE
  5
3D8
  8
0
 10
866.295649
 20
-0.000002
 30
0.0
 11
866.295649
 21
132.868022
 31
0.0
  0
LINE
  5
3D9
  8
0
 10
801.821556
 20
180.118536
 30
0.0
 11
801.821556
 21
22.737056
 31
0.0
  0
LINE
  5
3DA
  8
0
 10
1104.837347
 20
202.855594
 30
0.0
 11
1104.837347
 21
-0.000002
 31
0.0
  0
LINE
  5
3DB
  8
0
 62
     8
 10
1104.837347
 20
25.644436
 30
0.0
 11
866.295649
 21
25.644436
 31
0.0
  0
LINE
  5
3DC
  8
0
 10
1104.837347
 20
-0.000002
 30
0.0
 11
866.295649
 21
-0.000002
 31
0.0
  0
LINE
  5
3DD
  8
0
 10
801.821556
 20
22.737056
 30
0.0
 11
866.295649
 21
-0.000002
 31
0.0
  0
LINE
  5
3DE
  8
0
 10
917.123787
 20
486.644591
 30
0.0
 11
979.565397
 21
486.644591
 31
0.0
  0
LINE
  5
3DF
  8
0
 10
917.123787
 20
465.068985
 30
0.0
 11
979.565397
 21
465.068985
 31
0.0
  0
LINE
  5
3E0
  8
0
 10
801.114668
 20
393.113407
 30
0.0
 11
1018.413616
 21
393.113407
 31
0.0
  0
LINE
  5
3E1
  8
0
 10
1018.778177
 20
389.107448
 30
0.0
 11
801.114668
 21
389.107448
 31
0.0
  0
LINE
  5
3E2
  8
0
 10
782.469634
 20
365.70209
 30
0.0
 11
959.008478
 21
365.70209
 31
0.0
  0
LINE
  5
3E3
  8
0
 10
782.469634
 20
376.237158
 30
0.0
 11
959.008478
 21
376.237158
 31
0.0
  0
LINE
  5
3E4
  8
0
 62
     8
 10
934.268768
 20
76.166676
 30
0.0
 11
866.295649
 21
76.166676
 31
0.0
  0
LINE
  5
3E5
  8
0
 62
     8
 10
934.268768
 20
101.427796
 30
0.0
 11
866.295649
 21
101.427796
 31
0.0
  0
LINE
  5
3E6
  8
0
 62
     8
 10
934.268768
 20
126.688916
 30
0.0
 11
866.295649
 21
126.688916
 31
0.0
  0
LINE
  5
3E7
  8
0
 10
856.855256
 20
132.868022
 30
0.0
 11
956.814039
 21
132.868022
 31
0.0
  0
LINE
  5
3E8
  8
0
 62
     8
 10
1104.837347
 20
50.905556
 30
0.0
 11
866.295649
 21
50.905556
 31
0.0
  0
LINE
  5
3E9
  8
0
 10
856.280256
 20
133.443022
 30
0.0
 11
856.280256
 21
365.70209
 31
0.0
  0
LINE
  5
3EA
  8
0
 10
801.821556
 20
180.118536
 30
0.0
 11
856.280256
 21
199.323624
 31
0.0
  0
LINE
  5
3EB
  8
0
 10
794.526456
 20
200.964402
 30
0.0
 11
794.526456
 21
58.273738
 31
0.0
  0
LINE
  5
3EC
  8
0
 10
793.951456
 20
57.698738
 30
0.0
 11
794.526456
 21
58.273738
 31
0.0
  0
LINE
  5
3ED
  8
0
 10
793.951456
 20
201.539402
 30
0.0
 11
794.526456
 21
200.964402
 31
0.0
  0
LINE
  5
3EE
  8
0
 10
794.526456
 20
161.697596
 30
0.0
 11
801.821556
 21
161.697596
 31
0.0
  0
LINE
  5
3EF
  8
0
 10
856.280256
 20
133.443022
 30
0.0
 11
856.855256
 21
132.868022
 31
0.0
  0
LINE
  5
3F0
  8
0
 10
744.686466
 20
417.243308
 30
0.0
 11
899.46905
 21
417.243308
 31
0.0
  0
LINE
  5
3F1
  8
0
 62
     1
 10
744.686466
 20
299.625834
 30
0.0
 11
856.280256
 21
299.625834
 31
0.0
  0
LINE
  5
3F2
  8
0
 10
810.496829
 20
376.237158
 30
0.0
 11
810.496829
 21
389.107448
 31
0.0
  0
LINE
  5
3F3
  8
0
 10
799.950738
 20
376.237158
 30
0.0
 11
799.950738
 21
417.243308
 31
0.0
  0
LINE
  5
3F4
  8
0
 10
782.469634
 20
376.237158
 30
0.0
 11
782.469634
 21
365.70209
 31
0.0
  0
LINE
  5
3F5
  8
0
 10
791.829997
 20
357.658238
 30
0.0
 11
818.61757
 21
357.658238
 31
0.0
  0
LINE
  5
3F6
  8
0
 10
791.829997
 20
357.658238
 30
0.0
 11
791.829997
 21
365.70209
 31
0.0
  0
LINE
  5
3F7
  8
0
 10
799.950738
 20
357.658238
 30
0.0
 11
799.950738
 21
365.70209
 31
0.0
  0
LINE
  5
3F8
  8
0
 10
810.496829
 20
357.658238
 30
0.0
 11
810.496829
 21
365.70209
 31
0.0
  0
LINE
  5
3F9
  8
0
 10
818.61757
 20
357.658238
 30
0.0
 11
818.61757
 21
365.70209
 31
0.0
  0
LINE
  5
3FA
  8
0
 10
801.114668
 20
389.107448
 30
0.0
 11
801.114668
 21
393.113407
 31
0.0
  0
LINE
  5
3FB
  8
0
 10
810.496829
 20
393.113407
 30
0.0
 11
810.496829
 21
417.243308
 31
0.0
  0
LINE
  5
3FC
  8
0
 10
899.46905
 20
430.579693
 30
0.0
 11
899.46905
 21
407.193524
 31
0.0
  0
LINE
  5
3FD
  8
0
 10
917.123787
 20
465.068985
 30
0.0
 11
917.123787
 21
486.644591
 31
0.0
  0
LINE
  5
3FE
  8
0
 10
1085.706961
 20
385.699109
 30
0.0
 11
1085.706961
 21
202.855594
 31
0.0
  0
LINE
  5
3FF
  8
0
 10
957.389039
 20
133.443022
 30
0.0
 11
957.389039
 21
365.70209
 31
0.0
  0
LINE
  5
400
  8
0
 10
1104.837347
 20
202.855594
 30
0.0
 11
957.389039
 21
202.855594
 31
0.0
  0
LINE
  5
401
  8
0
 62
     8
 10
1104.837347
 20
177.211157
 30
0.0
 11
957.389039
 21
177.211157
 31
0.0
  0
LINE
  5
402
  8
0
 10
934.843768
 20
59.187538
 30
0.0
 11
1036.289227
 21
59.187538
 31
0.0
  0
LINE
  5
403
  8
0
 10
957.389039
 20
143.668054
 30
0.0
 11
1036.289227
 21
143.668054
 31
0.0
  0
LINE
  5
404
  8
0
 62
     8
 10
1104.837347
 20
151.950037
 30
0.0
 11
957.389039
 21
151.950037
 31
0.0
  0
LINE
  5
405
  8
0
 10
934.268768
 20
59.762538
 30
0.0
 11
934.268768
 21
132.868022
 31
0.0
  0
LINE
  5
406
  8
0
 10
934.843768
 20
59.187538
 30
0.0
 11
934.268768
 21
59.762538
 31
0.0
  0
LINE
  5
407
  8
0
 10
956.814039
 20
132.868022
 30
0.0
 11
957.389039
 21
133.443022
 31
0.0
  0
LINE
  5
408
  8
0
 62
     8
 10
1104.837347
 20
126.688916
 30
0.0
 11
1036.864227
 21
126.688916
 31
0.0
  0
LINE
  5
409
  8
0
 62
     8
 10
1104.837347
 20
101.427796
 30
0.0
 11
1036.864227
 21
101.427796
 31
0.0
  0
LINE
  5
40A
  8
0
 62
     8
 10
1104.837347
 20
76.166676
 30
0.0
 11
1036.864227
 21
76.166676
 31
0.0
  0
LINE
  5
40B
  8
0
 10
1036.864227
 20
59.762538
 30
0.0
 11
1036.864227
 21
143.093054
 31
0.0
  0
LINE
  5
40C
  8
0
 10
1036.864227
 20
59.762538
 30
0.0
 11
1036.289227
 21
59.187538
 31
0.0
  0
LINE
  5
40D
  8
0
 10
1036.289227
 20
143.668054
 30
0.0
 11
1036.864227
 21
143.093054
 31
0.0
  0
LINE
  5
40E
  8
0
 62
     1
 10
957.389039
 20
299.625834
 30
0.0
 11
1085.706961
 21
299.625834
 31
0.0
  0
LINE
  5
40F
  8
0
 10
1099.457386
 20
393.247391
 30
0.0
 11
1027.058611
 21
393.247391
 31
0.0
  0
LINE
  5
410
  8
0
 10
1099.457386
 20
385.699109
 30
0.0
 11
1023.284471
 21
385.699109
 31
0.0
  0
LINE
  5
411
  8
0
 10
959.008478
 20
365.70209
 30
0.0
 11
959.008478
 21
376.237158
 31
0.0
  0
LINE
  5
412
  8
0
 10
979.565397
 20
465.068985
 30
0.0
 11
979.565397
 21
486.644591
 31
0.0
  0
ARC
  5
413
  8
0
 10
1023.284471
 20
389.47325
 30
0.0
 40
3.774141
 50
180.0
 51
0.0
  0
LINE
  5
414
  8
0
 10
1027.058611
 20
389.47325
 30
0.0
 11
1027.058611
 21
407.193524
 31
0.0
  0
LINE
  5
415
  8
0
 10
1019.51033
 20
389.47325
 30
0.0
 11
1019.51033
 21
407.193524
 31
0.0
  0
ARC
  5
416
  8
0
 10
1099.457386
 20
389.47325
 30
0.0
 40
3.774141
 50
270.0
 51
90.0
  0
LINE
  5
417
  8
0
 10
1085.706961
 20
407.193524
 30
0.0
 11
1085.706961
 21
393.247391
 31
0.0
  0
LINE
  5
418
  8
0
 10
475.999994
 20
736.949603
 30
0.0
 11
744.686466
 21
736.949603
 31
0.0
  0
ARC
  5
419
  8
0
  6
DASHED2
 10
123.9565
 20
782.907535
 30
0.0
 40
442.495427
 50
11.929668
 51
27.175068
  0
LINE
  5
41A
  8
0
  6
DASHED2
 10
526.954144
 20
874.37613
 30
0.0
 11
556.894947
 21
874.37613
 31
0.0
  0
LINE
  5
41B
  8
0
  6
DASHED2
 10
548.635417
 20
861.1503
 30
0.0
 11
526.954144
 21
874.37613
 31
0.0
  0
LINE
  5
41C
  8
0
 62
     1
 10
500.606628
 20
712.34297
 30
0.0
 11
720.079833
 21
712.34297
 31
0.0
  0
LINE
  5
41D
  8
0
  6
DASHED2
 10
548.635417
 20
777.695003
 30
0.0
 11
548.635417
 21
861.1503
 31
0.0
  0
ARC
  5
41E
  8
0
 10
599.9565
 20
782.907535
 30
0.0
 40
442.495427
 50
11.929668
 51
27.175068
  0
ARC
  5
41F
  8
0
 10
1193.23192
 20
782.907535
 30
0.0
 40
442.495427
 50
152.824932
 51
168.070332
  0
LINE
  5
420
  8
0
 10
760.293473
 20
874.37613
 30
0.0
 11
1032.894947
 21
874.37613
 31
0.0
  0
LINE
  5
421
  8
0
 10
917.123787
 20
589.548715
 30
0.0
 11
979.565397
 21
589.548715
 31
0.0
  0
LINE
  5
422
  8
0
 10
917.123787
 20
611.124321
 30
0.0
 11
979.565397
 21
611.124321
 31
0.0
  0
LINE
  5
423
  8
0
 62
     8
 10
868.699835
 20
658.949998
 30
0.0
 11
868.699835
 21
857.83976
 31
0.0
  0
LINE
  5
424
  8
0
 10
768.553003
 20
658.949998
 30
0.0
 11
768.553003
 21
861.1503
 31
0.0
  0
LINE
  5
425
  8
0
 62
     8
 10
809.850665
 20
658.949998
 30
0.0
 11
809.850665
 21
857.83976
 31
0.0
  0
LINE
  5
426
  8
0
 62
     8
 10
829.467055
 20
658.949998
 30
0.0
 11
829.467055
 21
857.83976
 31
0.0
  0
LINE
  5
427
  8
0
 62
     8
 10
849.083445
 20
658.949998
 30
0.0
 11
849.083445
 21
857.83976
 31
0.0
  0
LINE
  5
428
  8
0
 62
     8
 10
927.549005
 20
658.949998
 30
0.0
 11
927.549005
 21
857.83976
 31
0.0
  0
LINE
  5
429
  8
0
 62
     8
 10
888.316225
 20
658.949998
 30
0.0
 11
888.316225
 21
857.83976
 31
0.0
  0
LINE
  5
42A
  8
0
 62
     8
 10
907.932615
 20
658.949998
 30
0.0
 11
907.932615
 21
857.83976
 31
0.0
  0
LINE
  5
42B
  8
0
 62
     8
 10
790.234275
 20
658.949998
 30
0.0
 11
790.234275
 21
874.37613
 31
0.0
  0
LINE
  5
42C
  8
0
 10
917.123787
 20
589.548715
 30
0.0
 11
917.123787
 21
611.124321
 31
0.0
  0
LINE
  5
42D
  8
0
 10
768.553003
 20
861.1503
 30
0.0
 11
790.234275
 21
874.37613
 31
0.0
  0
LINE
  5
42E
  8
0
 62
     8
 10
966.781785
 20
658.949998
 30
0.0
 11
966.781785
 21
857.83976
 31
0.0
  0
LINE
  5
42F
  8
0
 10
1024.635417
 20
658.949998
 30
0.0
 11
1024.635417
 21
861.1503
 31
0.0
  0
LINE
  5
430
  8
0
 62
     8
 10
986.398175
 20
658.949998
 30
0.0
 11
986.398175
 21
857.83976
 31
0.0
  0
LINE
  5
431
  8
0
 62
     8
 10
947.165395
 20
658.949998
 30
0.0
 11
947.165395
 21
857.83976
 31
0.0
  0
LINE
  5
432
  8
0
 62
     8
 10
1002.954144
 20
658.949998
 30
0.0
 11
1002.954144
 21
874.37613
 31
0.0
  0
LINE
  5
433
  8
0
 10
979.565397
 20
589.548715
 30
0.0
 11
979.565397
 21
611.124321
 31
0.0
  0
LINE
  5
434
  8
0
 10
1024.635417
 20
861.1503
 30
0.0
 11
1002.954144
 21
874.37613
 31
0.0
  0
LINE
  5
435
  8
0
 10
799.581264
 20
984.999998
 30
0.0
 11
993.607156
 21
984.999998
 31
0.0
  0
LINE
  5
436
  8
0
 10
1846.572454
 20
706.096653
 30
0.0
 11
2233.064455
 21
706.096653
 31
0.0
  0
LINE
  5
437
  8
0
 10
1846.572454
 20
370.096653
 30
0.0
 11
2233.064455
 21
370.096653
 31
0.0
  0
LINE
  5
438
  8
0
 62
     8
 10
1782.969395
 20
347.948022
 30
0.0
 11
1782.969395
 21
531.779865
 31
0.0
  0
LINE
  5
439
  8
0
 10
1757.954402
 20
359.394442
 30
0.0
 11
1757.954402
 21
531.779865
 31
0.0
  0
LINE
  5
43A
  8
0
 10
1767.046033
 20
531.779865
 30
0.0
 11
1767.046033
 21
359.394442
 31
0.0
  0
LINE
  5
43B
  8
0
 62
     8
 10
1846.572454
 20
370.096653
 30
0.0
 11
1846.572454
 21
706.096653
 31
0.0
  0
LINE
  5
43C
  8
0
 62
     8
 10
1831.656456
 20
374.235234
 30
0.0
 11
1831.656456
 21
701.958072
 31
0.0
  0
LINE
  5
43D
  8
0
 10
1795.999994
 20
347.948022
 30
0.0
 11
1795.999994
 21
728.245284
 31
0.0
  0
LINE
  5
43E
  8
0
 10
1463.881253
 20
359.394442
 30
0.0
 11
1463.881253
 21
716.798864
 31
0.0
  0
LINE
  5
43F
  8
0
 10
1474.336629
 20
716.798864
 30
0.0
 11
1474.336629
 21
359.394442
 31
0.0
  0
LINE
  5
440
  8
0
 10
1484.792004
 20
359.394442
 30
0.0
 11
1484.792004
 21
716.798864
 31
0.0
  0
LINE
  5
441
  8
0
 10
1484.792004
 20
430.579693
 30
0.0
 11
1757.954402
 21
430.579693
 31
0.0
  0
LINE
  5
442
  8
0
 10
1484.792004
 20
407.193524
 30
0.0
 11
1757.954402
 21
407.193524
 31
0.0
  0
LINE
  5
443
  8
0
 10
1514.667537
 20
167.1713
 30
0.0
 11
1551.850854
 21
162.491325
 31
0.0
  0
LINE
  5
444
  8
0
 10
1186.541995
 20
-0.000002
 30
0.0
 11
1551.850854
 21
40.364267
 31
0.0
  0
LINE
  5
445
  8
0
 10
1566.384485
 20
149.961159
 30
0.0
 11
1181.084625
 21
263.335498
 31
0.0
  0
LINE
  5
446
  8
0
 10
1566.384485
 20
138.530707
 30
0.0
 11
1177.749682
 21
253.014834
 31
0.0
  0
LINE
  5
447
  8
0
 10
1566.384485
 20
160.376018
 30
0.0
 11
1198.535055
 21
267.943278
 31
0.0
  0
LINE
  5
448
  8
0
 10
1578.329665
 20
167.831405
 30
0.0
 11
1201.869998
 21
278.263943
 31
0.0
  0
LINE
  5
449
  8
0
 10
1150.348478
 20
202.855594
 30
0.0
 11
1150.348478
 21
-0.000002
 31
0.0
  0
LINE
  5
44A
  8
0
 10
1186.541995
 20
202.855594
 30
0.0
 11
1186.541995
 21
-0.000002
 31
0.0
  0
LINE
  5
44B
  8
0
 10
1186.541995
 20
-0.000002
 30
0.0
 11
1150.348478
 21
-0.000002
 31
0.0
  0
LINE
  5
44C
  8
0
 10
1186.541995
 20
202.855594
 30
0.0
 11
1459.424855
 21
174.124267
 31
0.0
  0
ARC
  5
44D
  8
0
 10
1186.339776
 20
278.828305
 30
0.0
 40
27.205239
 50
180.0
 51
251.593814
  0
ARC
  5
44E
  8
0
 10
1186.339776
 20
278.828305
 30
0.0
 40
16.359819
 50
180.0
 51
251.593814
  0
ARC
  5
44F
  8
0
 10
1207.12515
 20
293.75675
 30
0.0
 40
27.205239
 50
180.0
 51
251.593814
  0
LINE
  5
450
  8
0
 10
1186.541995
 20
202.855594
 30
0.0
 11
1150.348478
 21
202.855594
 31
0.0
  0
LINE
  5
451
  8
0
 10
1179.919911
 20
407.193524
 30
0.0
 11
1179.919911
 21
293.75675
 31
0.0
  0
LINE
  5
452
  8
0
 10
1169.979957
 20
407.193524
 30
0.0
 11
1169.979957
 21
278.828305
 31
0.0
  0
LINE
  5
453
  8
0
 10
1159.134538
 20
407.193524
 30
0.0
 11
1159.134538
 21
278.828305
 31
0.0
  0
LINE
  5
454
  8
0
 10
1190.765331
 20
407.193524
 30
0.0
 11
1190.765331
 21
293.75675
 31
0.0
  0
ARC
  5
455
  8
0
 10
1207.12515
 20
293.75675
 30
0.0
 40
16.359819
 50
180.0
 51
251.593814
  0
LINE
  5
456
  8
0
 10
1400.307941
 20
388.286128
 30
0.0
 11
1429.571837
 21
388.286128
 31
0.0
  0
LINE
  5
457
  8
0
 10
1400.307941
 20
388.286128
 30
0.0
 11
1400.307941
 21
481.207601
 31
0.0
  0
LINE
  5
458
  8
0
 10
1484.792004
 20
359.394442
 30
0.0
 11
1474.336629
 21
359.394442
 31
0.0
  0
LINE
  5
459
  8
0
 10
1463.881253
 20
359.394442
 30
0.0
 11
1474.336629
 21
359.394442
 31
0.0
  0
LINE
  5
45A
  8
0
 10
1429.571837
 20
388.286128
 30
0.0
 11
1429.571837
 21
481.207601
 31
0.0
  0
LINE
  5
45B
  8
0
 10
1429.571837
 20
407.193524
 30
0.0
 11
1463.881253
 21
407.193524
 31
0.0
  0
LINE
  5
45C
  8
0
 10
1429.571837
 20
430.579693
 30
0.0
 11
1463.881253
 21
430.579693
 31
0.0
  0
LINE
  5
45D
  8
0
 10
1429.571837
 20
407.193524
 30
0.0
 11
1463.881253
 21
407.193524
 31
0.0
  0
LINE
  5
45E
  8
0
 10
1551.850854
 20
143.367146
 30
0.0
 11
1551.850854
 21
22.719419
 31
0.0
  0
LINE
  5
45F
  8
0
 10
1608.739751
 20
180.136173
 30
0.0
 11
1608.739751
 21
22.719419
 31
0.0
  0
LINE
  5
460
  8
0
 10
1608.739751
 20
22.719419
 30
0.0
 11
1551.850854
 21
22.719419
 31
0.0
  0
LINE
  5
461
  8
0
 10
1566.384485
 20
167.256405
 30
0.0
 11
1566.384485
 21
126.299745
 31
0.0
  0
LINE
  5
462
  8
0
 10
1588.075869
 20
126.299745
 30
0.0
 11
1588.075869
 21
167.831405
 31
0.0
  0
LINE
  5
463
  8
0
 10
1566.384485
 20
126.299745
 30
0.0
 11
1588.075869
 21
126.299745
 31
0.0
  0
LINE
  5
464
  8
0
 10
1551.850854
 20
180.136173
 30
0.0
 11
1608.739751
 21
180.136173
 31
0.0
  0
LINE
  5
465
  8
0
 10
1588.075869
 20
167.831405
 30
0.0
 11
1566.959485
 21
167.831405
 31
0.0
  0
LINE
  5
466
  8
0
 10
1551.850854
 20
180.136173
 30
0.0
 11
1551.850854
 21
176.642908
 31
0.0
  0
LINE
  5
467
  8
0
 10
1551.850854
 20
165.212456
 30
0.0
 11
1551.850854
 21
154.797598
 31
0.0
  0
LINE
  5
468
  8
0
 10
1566.384485
 20
167.256405
 30
0.0
 11
1566.959485
 21
167.831405
 31
0.0
  0
LINE
  5
469
  8
0
 10
1676.837314
 20
369.341912
 30
0.0
 11
1676.837314
 21
407.193524
 31
0.0
  0
LINE
  5
46A
  8
0
 10
1688.230379
 20
369.341912
 30
0.0
 11
1688.230379
 21
407.193524
 31
0.0
  0
POLYLINE
  5
46B
  8
0
 66
     1
 10
0.0
 20
0.0
 30
0.0
 70
     1
  0
VERTEX
  5
556
  8
0
 10
1653.874803
 20
369.341912
 30
0.0
  0
VERTEX
  5
557
  8
0
 10
1653.874803
 20
314.407204
 30
0.0
  0
VERTEX
  5
558
  8
0
 10
1708.809511
 20
314.407204
 30
0.0
  0
VERTEX
  5
559
  8
0
 10
1708.809511
 20
369.341912
 30
0.0
  0
SEQEND
  5
55A
  8
0
  0
LINE
  5
46C
  8
0
 10
1795.999994
 20
374.235234
 30
0.0
 11
1846.572454
 21
374.235234
 31
0.0
  0
LINE
  5
46D
  8
0
 10
1782.969395
 20
359.394442
 30
0.0
 11
1767.046033
 21
359.394442
 31
0.0
  0
LINE
  5
46E
  8
0
 10
1757.954402
 20
359.394442
 30
0.0
 11
1767.046033
 21
359.394442
 31
0.0
  0
LINE
  5
46F
  8
0
 10
1782.969395
 20
347.948022
 30
0.0
 11
1795.999994
 21
347.948022
 31
0.0
  0
LINE
  5
470
  8
0
 10
1484.792004
 20
658.949998
 30
0.0
 11
1757.954402
 21
658.949998
 31
0.0
  0
POLYLINE
  5
471
  8
0
 66
     1
 10
0.0
 20
0.0
 30
0.0
 70
     1
  0
VERTEX
  5
55B
  8
0
 10
1199.973056
 20
720.051432
 30
0.0
  0
VERTEX
  5
55C
  8
0
 10
1199.973056
 20
665.116723
 30
0.0
  0
VERTEX
  5
55D
  8
0
 10
1234.285676
 20
665.116723
 30
0.0
  0
VERTEX
  5
55E
  8
0
 10
1234.285676
 20
720.051432
 30
0.0
  0
SEQEND
  5
55F
  8
0
  0
POLYLINE
  5
472
  8
0
 66
     1
 10
0.0
 20
0.0
 30
0.0
 70
     1
  0
VERTEX
  5
560
  8
0
 10
1251.528279
 20
720.051432
 30
0.0
  0
VERTEX
  5
561
  8
0
 10
1251.528279
 20
665.116723
 30
0.0
  0
VERTEX
  5
562
  8
0
 10
1285.840898
 20
665.116723
 30
0.0
  0
VERTEX
  5
563
  8
0
 10
1285.840898
 20
720.051432
 30
0.0
  0
SEQEND
  5
564
  8
0
  0
LINE
  5
473
  8
0
 10
1484.792004
 20
716.798864
 30
0.0
 11
1474.336629
 21
716.798864
 31
0.0
  0
LINE
  5
474
  8
0
 10
1463.881253
 20
716.798864
 30
0.0
 11
1474.336629
 21
716.798864
 31
0.0
  0
LINE
  5
475
  8
0
 10
1767.046033
 20
716.798864
 30
0.0
 11
1767.046033
 21
544.413441
 31
0.0
  0
LINE
  5
476
  8
0
 10
1757.954402
 20
544.413441
 30
0.0
 11
1757.954402
 21
716.798864
 31
0.0
  0
LINE
  5
477
  8
0
 62
     8
 10
1782.969395
 20
544.413441
 30
0.0
 11
1782.969395
 21
728.245284
 31
0.0
  0
LINE
  5
478
  8
0
 10
1795.999994
 20
701.958072
 30
0.0
 11
1846.572454
 21
701.958072
 31
0.0
  0
LINE
  5
479
  8
0
 10
1749.806882
 20
544.413441
 30
0.0
 11
1783.896175
 21
544.413441
 31
0.0
  0
LINE
  5
47A
  8
0
 10
1749.806882
 20
531.779865
 30
0.0
 11
1783.896175
 21
531.779865
 31
0.0
  0
LINE
  5
47B
  8
0
 10
1749.806882
 20
544.413441
 30
0.0
 11
1749.806882
 21
531.779865
 31
0.0
  0
LINE
  5
47C
  8
0
 10
1783.896175
 20
544.413441
 30
0.0
 11
1783.896175
 21
531.779865
 31
0.0
  0
LINE
  5
47D
  8
0
 10
1782.969395
 20
716.798864
 30
0.0
 11
1767.046033
 21
716.798864
 31
0.0
  0
LINE
  5
47E
  8
0
 10
1757.954402
 20
716.798864
 30
0.0
 11
1767.046033
 21
716.798864
 31
0.0
  0
LINE
  5
47F
  8
0
 10
1782.969395
 20
728.245284
 30
0.0
 11
1795.999994
 21
728.245284
 31
0.0
  0
LINE
  5
480
  8
0
 62
     8
 10
2223.397649
 20
706.096653
 30
0.0
 11
2223.397649
 21
370.096653
 31
0.0
  0
LINE
  5
481
  8
0
 10
2233.064455
 20
706.096653
 30
0.0
 11
2233.064455
 21
370.096653
 31
0.0
  0
LINE
  5
482
  8
0
 10
2271.999994
 20
385.783185
 30
0.0
 11
2271.999994
 21
690.410121
 31
0.0
  0
LINE
  5
483
  8
0
 10
2271.999994
 20
385.783185
 30
0.0
 11
2233.064455
 21
370.096653
 31
0.0
  0
LINE
  5
484
  8
0
 10
2271.999994
 20
690.410121
 30
0.0
 11
2233.064455
 21
706.096653
 31
0.0
  0
ENDBLK
  5
486
  8
0
  0
BLOCK
  8
0
  2
A$C52126C33
 70
     0
 10
0.0
 20
0.0
 30
0.0
  3
A$C52126C33
  1

  0
LINE
  5
48A
  8
0
 10
946.036128
 20
603.727445
 30
0.0
 11
1415.542616
 21
603.727445
 31
0.0
  0
LINE
  5
48B
  8
0
 10
899.052199
 20
623.72262
 30
0.0
 11
1415.542616
 21
623.72262
 31
0.0
  0
LINE
  5
48C
  8
0
 10
878.15713
 20
630.301755
 30
0.0
 11
1463.881253
 21
630.301755
 31
0.0
  0
LINE
  5
48D
  8
0
 10
1104.837347
 20
397.843617
 30
0.0
 11
1150.348478
 21
359.701915
 31
0.0
  0
LINE
  5
48E
  8
0
 10
1069.945832
 20
435.129966
 30
0.0
 11
1463.881253
 21
435.129966
 31
0.0
  0
LINE
  5
48F
  8
0
 10
1104.837347
 20
194.98802
 30
0.0
 11
1150.348478
 21
233.129722
 31
0.0
  0
LINE
  5
490
  8
0
  6
DASHED2
 10
149.136221
 20
323.067542
 30
0.0
 11
-0.000006
 21
404.499763
 31
0.0
  0
LINE
  5
491
  8
0
 10
685.52753
 20
397.268617
 30
0.0
 11
685.52753
 21
195.56302
 31
0.0
  0
LINE
  5
492
  8
0
 10
794.526456
 20
397.268617
 30
0.0
 11
794.526456
 21
195.56302
 31
0.0
  0
LINE
  5
493
  8
0
 10
866.295649
 20
194.98802
 30
0.0
 11
866.295649
 21
382.833483
 31
0.0
  0
LINE
  5
494
  8
0
 10
866.295649
 20
397.843617
 30
0.0
 11
866.295649
 21
209.998154
 31
0.0
  0
LINE
  5
495
  8
0
 10
801.821556
 20
375.106559
 30
0.0
 11
801.821556
 21
217.725078
 31
0.0
  0
LINE
  5
496
  8
0
 10
1104.837347
 20
397.843617
 30
0.0
 11
1104.837347
 21
194.98802
 31
0.0
  0
LINE
  5
497
  8
0
 10
576.860257
 20
349.427462
 30
0.0
 11
475.999994
 21
404.499763
 31
0.0
  0
LINE
  5
498
  8
0
 10
737.605666
 20
643.819085
 30
0.0
 11
576.860257
 21
349.427462
 31
0.0
  0
POLYLINE
  5
499
  8
0
 66
     1
 10
0.0
 20
0.0
 30
0.0
  0
VERTEX
  5
565
  8
0
 10
782.469634
 20
603.823016
 30
0.0
 42
0.520672
  0
VERTEX
  5
566
  8
0
 10
707.481459
 20
160.758512
 30
0.0
  0
SEQEND
  5
567
  8
0
  0
LINE
  5
49A
  8
0
  6
DASHED2
 10
231.481459
 20
-0.000003
 30
0.0
 11
663.414885
 21
-0.000003
 31
0.0
  0
POLYLINE
  5
49B
  8
0
  6
DASHED2
 66
     1
 10
0.0
 20
0.0
 30
0.0
  0
VERTEX
  5
568
  8
0
  6
DASHED2
 10
149.136221
 20
323.067542
 30
0.0
 42
0.171279
  0
VERTEX
  5
569
  8
0
  6
DASHED2
 10
234.682683
 20
157.65296
 30
0.0
  0
SEQEND
  5
56A
  8
0
  6
DASHED2
  0
LINE
  5
49C
  8
0
  6
DASHED2
 10
231.481459
 20
142.739953
 30
0.0
 11
231.481459
 21
-0.000003
 31
0.0
  0
LINE
  5
49D
  8
0
  6
DASHED2
 10
231.481459
 20
142.739953
 30
0.0
 11
234.682683
 21
157.65296
 31
0.0
  0
LINE
  5
49E
  8
0
 10
793.951456
 20
194.98802
 30
0.0
 11
686.10253
 21
194.98802
 31
0.0
  0
LINE
  5
49F
  8
0
 62
     1
 10
707.481459
 20
21.115277
 30
0.0
 11
1085.706961
 21
21.115277
 31
0.0
  0
LINE
  5
4A0
  8
0
 10
707.481459
 20
-0.000003
 30
0.0
 11
1085.706961
 21
-0.000003
 31
0.0
  0
LINE
  5
4A1
  8
0
 62
     1
 10
707.481459
 20
128.668451
 30
0.0
 11
1085.706961
 21
128.668451
 31
0.0
  0
LINE
  5
4A2
  8
0
 10
707.481459
 20
142.739953
 30
0.0
 11
707.481459
 21
-0.000003
 31
0.0
  0
LINE
  5
4A3
  8
0
 10
707.481459
 20
142.739953
 30
0.0
 11
718.697024
 21
194.98802
 31
0.0
  0
LINE
  5
4A4
  8
0
 10
686.10253
 20
194.98802
 30
0.0
 11
685.52753
 21
195.56302
 31
0.0
  0
LINE
  5
4A5
  8
0
 62
     8
 10
1104.837347
 20
346.938059
 30
0.0
 11
866.295649
 21
346.938059
 31
0.0
  0
LINE
  5
4A6
  8
0
 62
     8
 10
1104.837347
 20
245.893578
 30
0.0
 11
866.295649
 21
245.893578
 31
0.0
  0
LINE
  5
4A7
  8
0
 62
     8
 10
1104.837347
 20
271.154698
 30
0.0
 11
866.295649
 21
271.154698
 31
0.0
  0
LINE
  5
4A8
  8
0
 62
     8
 10
1104.837347
 20
321.676939
 30
0.0
 11
866.295649
 21
321.676939
 31
0.0
  0
LINE
  5
4A9
  8
0
 62
     8
 10
1104.837347
 20
296.415819
 30
0.0
 11
866.295649
 21
296.415819
 31
0.0
  0
LINE
  5
4AA
  8
0
 62
     8
 10
1104.837347
 20
220.632458
 30
0.0
 11
866.295649
 21
220.632458
 31
0.0
  0
LINE
  5
4AB
  8
0
 10
1104.837347
 20
194.98802
 30
0.0
 11
866.295649
 21
194.98802
 31
0.0
  0
LINE
  5
4AC
  8
0
 10
801.821556
 20
217.725078
 30
0.0
 11
866.295649
 21
194.98802
 31
0.0
  0
LINE
  5
4AD
  8
0
 10
794.526456
 20
195.56302
 30
0.0
 11
793.951456
 21
194.98802
 31
0.0
  0
LINE
  5
4AE
  8
0
 10
1085.706961
 20
142.739953
 30
0.0
 11
1085.706961
 21
-0.000003
 31
0.0
  0
LINE
  5
4AF
  8
0
 10
1122.987419
 20
98.542783
 30
0.0
 11
1122.987419
 21
210.199126
 31
0.0
  0
LINE
  5
4B0
  8
0
 10
1129.4412
 20
92.089002
 30
0.0
 11
1129.4412
 21
215.607873
 31
0.0
  0
LINE
  5
4B1
  8
0
 10
1085.706961
 20
91.514002
 30
0.0
 11
1128.8662
 21
91.514002
 31
0.0
  0
LINE
  5
4B2
  8
0
 10
1085.706961
 20
97.967783
 30
0.0
 11
1122.412419
 21
97.967783
 31
0.0
  0
LINE
  5
4B3
  8
0
 10
1122.412419
 20
97.967783
 30
0.0
 11
1122.987419
 21
98.542783
 31
0.0
  0
LINE
  5
4B4
  8
0
 10
1129.4412
 20
92.089002
 30
0.0
 11
1128.8662
 21
91.514002
 31
0.0
  0
LINE
  5
4B5
  8
0
 10
1085.706961
 20
142.739953
 30
0.0
 11
1074.491396
 21
194.98802
 31
0.0
  0
POLYLINE
  5
4B6
  8
0
  6
DASHED2
 66
     1
 10
0.0
 20
0.0
 30
0.0
  0
VERTEX
  5
56B
  8
0
  6
DASHED2
 10
402.15713
 20
630.301755
 30
0.0
  0
VERTEX
  5
56C
  8
0
  6
DASHED2
 10
355.466779
 20
630.301755
 30
0.0
 42
-0.071111
  0
VERTEX
  5
56D
  8
0
  6
DASHED2
 10
261.47698
 20
643.583409
 30
0.0
  0
SEQEND
  5
56E
  8
0
  6
DASHED2
  0
LINE
  5
4B7
  8
0
  6
DASHED2
 10
160.745403
 20
698.891386
 30
0.0
 11
-0.000006
 21
404.499763
 31
0.0
  0
LINE
  5
4B8
  8
0
  6
DASHED2
 10
261.605666
 20
643.819085
 30
0.0
 11
160.745403
 21
698.891386
 31
0.0
  0
LINE
  5
4B9
  8
0
 10
737.605666
 20
643.819085
 30
0.0
 11
636.745403
 21
698.891386
 31
0.0
  0
LINE
  5
4BA
  8
0
 10
744.686466
 20
641.578748
 30
0.0
 11
671.842967
 21
508.172039
 31
0.0
  0
LINE
  5
4BB
  8
0
 10
793.951456
 20
397.843617
 30
0.0
 11
686.10253
 21
397.843617
 31
0.0
  0
ARC
  5
4BC
  8
0
 62
     1
 10
900.449806
 20
325.221704
 30
0.0
 40
180.202582
 50
104.188366
 51
156.234048
  0
LINE
  5
4BD
  8
0
  6
DASHED2
 10
402.15713
 20
630.301755
 30
0.0
 11
552.44761
 21
630.301755
 31
0.0
  0
LINE
  5
4BE
  8
0
 10
636.745403
 20
698.891386
 30
0.0
 11
475.999994
 21
404.499763
 31
0.0
  0
LINE
  5
4BF
  8
0
 10
685.52753
 20
397.268617
 30
0.0
 11
686.10253
 21
397.843617
 31
0.0
  0
ARC
  5
4C0
  8
0
 10
906.525139
 20
558.064766
 30
0.0
 40
60.383761
 50
44.644775
 51
135.355225
  0
LINE
  5
4C1
  8
0
 10
957.389039
 20
600.496994
 30
0.0
 11
856.280256
 21
600.496994
 31
0.0
  0
CIRCLE
  5
4C2
  8
0
 10
924.288256
 20
649.903099
 30
0.0
 40
19.601344
  0
CIRCLE
  5
4C3
  8
0
 10
924.288256
 20
649.903099
 30
0.0
 40
13.664127
  0
POLYLINE
  5
4C4
  8
0
 66
     1
 10
0.0
 20
0.0
 30
0.0
  0
VERTEX
  5
56F
  8
0
 10
937.038468
 20
630.301755
 30
0.0
  0
VERTEX
  5
570
  8
0
 10
900.039841
 20
630.301755
 30
0.0
 42
0.094706
  0
VERTEX
  5
571
  8
0
 10
798.89997
 20
610.97135
 30
0.0
  0
SEQEND
  5
572
  8
0
  0
LINE
  5
4C5
  8
0
 10
856.280256
 20
477.225967
 30
0.0
 11
957.389039
 21
477.225967
 31
0.0
  0
LINE
  5
4C6
  8
0
 10
934.268768
 20
397.843617
 30
0.0
 11
866.295649
 21
397.843617
 31
0.0
  0
LINE
  5
4C7
  8
0
 62
     8
 10
1104.837347
 20
372.199179
 30
0.0
 11
866.295649
 21
372.199179
 31
0.0
  0
ARC
  5
4C8
  8
0
 10
896.59421
 20
329.982733
 30
0.0
 40
145.997828
 50
43.377557
 51
152.302236
  0
LINE
  5
4C9
  8
0
 10
856.280256
 20
600.496994
 30
0.0
 11
856.280256
 21
477.225967
 31
0.0
  0
LINE
  5
4CA
  8
0
 10
782.469634
 20
610.97135
 30
0.0
 11
782.469634
 21
522.957382
 31
0.0
  0
LINE
  5
4CB
  8
0
 10
782.469634
 20
522.957382
 30
0.0
 11
856.280256
 21
522.957382
 31
0.0
  0
LINE
  5
4CC
  8
0
 10
801.821556
 20
375.106559
 30
0.0
 11
866.295649
 21
397.843617
 31
0.0
  0
LINE
  5
4CD
  8
0
 10
793.951456
 20
397.843617
 30
0.0
 11
794.526456
 21
397.268617
 31
0.0
  0
POLYLINE
  5
4CE
  8
0
 66
     1
 10
0.0
 20
0.0
 30
0.0
 70
     1
  0
VERTEX
  5
573
  8
0
 10
807.645589
 20
525.704504
 30
0.0
  0
VERTEX
  5
574
  8
0
 10
813.366746
 20
535.613839
 30
0.0
  0
VERTEX
  5
575
  8
0
 10
807.645589
 20
545.523174
 30
0.0
  0
VERTEX
  5
576
  8
0
 10
796.203274
 20
545.523174
 30
0.0
  0
VERTEX
  5
577
  8
0
 10
790.482117
 20
535.613839
 30
0.0
  0
VERTEX
  5
578
  8
0
 10
796.203274
 20
525.704504
 30
0.0
  0
SEQEND
  5
579
  8
0
  0
POLYLINE
  5
4CF
  8
0
 66
     1
 10
0.0
 20
0.0
 30
0.0
  0
VERTEX
  5
57A
  8
0
 10
878.15713
 20
630.301755
 30
0.0
  0
VERTEX
  5
57B
  8
0
 10
831.466779
 20
630.301755
 30
0.0
 42
-0.065507
  0
VERTEX
  5
57C
  8
0
 10
744.686466
 20
641.578748
 30
0.0
  0
SEQEND
  5
57D
  8
0
  0
LINE
  5
4D0
  8
0
 10
782.469634
 20
610.97135
 30
0.0
 11
874.145443
 21
610.97135
 31
0.0
  0
POLYLINE
  5
4D1
  8
0
 66
     1
 10
0.0
 20
0.0
 30
0.0
 70
     1
  0
VERTEX
  5
57E
  8
0
 10
807.645589
 20
587.823185
 30
0.0
  0
VERTEX
  5
57F
  8
0
 10
813.366746
 20
597.732521
 30
0.0
  0
VERTEX
  5
580
  8
0
 10
807.645589
 20
607.641856
 30
0.0
  0
VERTEX
  5
581
  8
0
 10
796.203274
 20
607.641856
 30
0.0
  0
VERTEX
  5
582
  8
0
 10
790.482117
 20
597.732521
 30
0.0
  0
VERTEX
  5
583
  8
0
 10
796.203274
 20
587.823185
 30
0.0
  0
SEQEND
  5
584
  8
0
  0
LINE
  5
4D2
  8
0
 10
878.15713
 20
630.301755
 30
0.0
 11
888.774834
 21
630.301755
 31
0.0
  0
LINE
  5
4D3
  8
0
 10
899.052199
 20
618.439299
 30
0.0
 11
899.052199
 21
623.72262
 31
0.0
  0
LINE
  5
4D4
  8
0
 10
957.389039
 20
477.225967
 30
0.0
 11
957.389039
 21
600.496994
 31
0.0
  0
LINE
  5
4D5
  8
0
 10
974.986262
 20
518.492771
 30
0.0
 11
974.986262
 21
603.226402
 31
0.0
  0
LINE
  5
4D6
  8
0
 10
968.532481
 20
515.585383
 30
0.0
 11
968.532481
 21
603.226402
 31
0.0
  0
LINE
  5
4D7
  8
0
 10
1036.864227
 20
430.254458
 30
0.0
 11
934.268768
 21
430.254458
 31
0.0
  0
ARC
  5
4D8
  8
0
 62
     1
 10
864.776484
 20
275.726733
 30
0.0
 40
237.535601
 50
36.667888
 51
67.052397
  0
LINE
  5
4D9
  8
0
 10
1122.541996
 20
385.925995
 30
0.0
 11
968.824697
 21
515.00862
 31
0.0
  0
LINE
  5
4DA
  8
0
 10
1128.995777
 20
389.171592
 30
0.0
 11
974.986262
 21
518.492771
 31
0.0
  0
LINE
  5
4DB
  8
0
 10
934.268768
 20
383.578983
 30
0.0
 11
934.268768
 21
430.254458
 31
0.0
  0
LINE
  5
4DC
  8
0
 10
1104.837347
 20
397.843617
 30
0.0
 11
1036.864227
 21
397.843617
 31
0.0
  0
LINE
  5
4DD
  8
0
 10
1036.864227
 20
383.578983
 30
0.0
 11
1036.864227
 21
430.254458
 31
0.0
  0
ARC
  5
4DE
  8
0
 10
922.443903
 20
317.046029
 30
0.0
 40
166.610114
 50
29.009202
 51
37.113212
  0
ARC
  5
4DF
  8
0
 10
1069.691745
 20
420.460578
 30
0.0
 40
14.671588
 50
89.007685
 51
191.333922
  0
LINE
  5
4E0
  8
0
 10
1122.987419
 20
382.632511
 30
0.0
 11
1122.987419
 21
384.987369
 31
0.0
  0
LINE
  5
4E1
  8
0
 10
1122.541996
 20
385.925995
 30
0.0
 11
1122.987419
 21
384.987369
 31
0.0
  0
LINE
  5
4E2
  8
0
 10
1129.4412
 20
377.223764
 30
0.0
 11
1129.4412
 21
388.232966
 31
0.0
  0
LINE
  5
4E3
  8
0
 10
1129.4412
 20
388.232966
 30
0.0
 11
1128.995777
 21
389.171592
 31
0.0
  0
LINE
  5
4E4
  8
0
 10
995.017123
 20
603.727445
 30
0.0
 11
946.036128
 21
603.727445
 31
0.0
  0
LINE
  5
4E5
  8
0
 10
1732.623016
 20
407.985698
 30
0.0
 11
1732.623016
 21
343.039404
 31
0.0
  0
LINE
  5
4E6
  8
0
 10
1551.850854
 20
375.124195
 30
0.0
 11
1551.850854
 21
217.707442
 31
0.0
  0
LINE
  5
4E7
  8
0
 10
1608.739751
 20
375.124195
 30
0.0
 11
1608.739751
 21
217.707442
 31
0.0
  0
LINE
  5
4E8
  8
0
 10
1150.348478
 20
397.843617
 30
0.0
 11
1150.348478
 21
194.98802
 31
0.0
  0
LINE
  5
4E9
  8
0
 10
1186.541995
 20
397.843617
 30
0.0
 11
1186.541995
 21
194.98802
 31
0.0
  0
LINE
  5
4EA
  8
0
 62
     8
 10
1782.969395
 20
334.851366
 30
0.0
 11
1782.969395
 21
715.148629
 31
0.0
  0
LINE
  5
4EB
  8
0
 10
1757.954402
 20
346.297786
 30
0.0
 11
1757.954402
 21
703.702208
 31
0.0
  0
LINE
  5
4EC
  8
0
 10
1767.046033
 20
703.702208
 30
0.0
 11
1767.046033
 21
346.297786
 31
0.0
  0
LINE
  5
4ED
  8
0
 10
1795.999994
 20
334.851366
 30
0.0
 11
1795.999994
 21
715.148629
 31
0.0
  0
LINE
  5
4EE
  8
0
 10
1186.541995
 20
194.98802
 30
0.0
 11
1551.850854
 21
235.35229
 31
0.0
  0
LINE
  5
4EF
  8
0
 10
1186.541995
 20
194.98802
 30
0.0
 11
1150.348478
 21
194.98802
 31
0.0
  0
LINE
  5
4F0
  8
0
 10
1608.739751
 20
343.039404
 30
0.0
 11
1732.623016
 21
343.039404
 31
0.0
  0
LINE
  5
4F1
  8
0
 10
1551.850854
 20
217.707442
 30
0.0
 11
1608.739751
 21
217.707442
 31
0.0
  0
LINE
  5
4F2
  8
0
 10
1782.969395
 20
346.297786
 30
0.0
 11
1767.046033
 21
346.297786
 31
0.0
  0
LINE
  5
4F3
  8
0
 10
1757.954402
 20
346.297786
 30
0.0
 11
1767.046033
 21
346.297786
 31
0.0
  0
LINE
  5
4F4
  8
0
 10
1782.969395
 20
334.851366
 30
0.0
 11
1795.999994
 21
334.851366
 31
0.0
  0
LINE
  5
4F5
  8
0
 10
1846.572454
 20
692.999997
 30
0.0
 11
2233.064455
 21
692.999997
 31
0.0
  0
LINE
  5
4F6
  8
0
 10
1846.572454
 20
356.999997
 30
0.0
 11
2233.064455
 21
356.999997
 31
0.0
  0
LINE
  5
4F7
  8
0
 10
1484.792004
 20
640.754864
 30
0.0
 11
1757.954402
 21
640.754864
 31
0.0
  0
LINE
  5
4F8
  8
0
 62
     8
 10
1523.376973
 20
407.985698
 30
0.0
 11
1627.999994
 21
440.280318
 31
0.0
  0
LINE
  5
4F9
  8
0
 10
1523.376973
 20
365.936764
 30
0.0
 11
1551.850854
 21
365.936764
 31
0.0
  0
LINE
  5
4FA
  8
0
 10
1186.541995
 20
397.843617
 30
0.0
 11
1551.850854
 21
357.479347
 31
0.0
  0
LINE
  5
4FB
  8
0
 10
1186.541995
 20
397.843617
 30
0.0
 11
1150.348478
 21
397.843617
 31
0.0
  0
LINE
  5
4FC
  8
0
 10
1415.542616
 20
577.504242
 30
0.0
 11
1415.542616
 21
627.085437
 31
0.0
  0
LINE
  5
4FD
  8
0
 10
1434.546702
 20
577.504242
 30
0.0
 11
1434.546702
 21
627.085437
 31
0.0
  0
LINE
  5
4FE
  8
0
 10
1484.792004
 20
364.888917
 30
0.0
 11
1484.792004
 21
703.702208
 31
0.0
  0
LINE
  5
4FF
  8
0
 10
1474.336629
 20
703.702208
 30
0.0
 11
1474.336629
 21
366.044169
 31
0.0
  0
LINE
  5
500
  8
0
 10
1463.881253
 20
367.19942
 30
0.0
 11
1463.881253
 21
703.702208
 31
0.0
  0
LINE
  5
501
  8
0
 10
1463.881253
 20
387.136895
 30
0.0
 11
1432.062542
 21
435.129966
 31
0.0
  0
LINE
  5
502
  8
0
 10
1484.792004
 20
407.985698
 30
0.0
 11
1523.376973
 21
407.985698
 31
0.0
  0
LINE
  5
503
  8
0
 10
1523.376973
 20
407.985698
 30
0.0
 11
1523.376973
 21
361.063133
 31
0.0
  0
LINE
  5
504
  8
0
 10
1415.542616
 20
627.085437
 30
0.0
 11
1434.546702
 21
627.085437
 31
0.0
  0
LINE
  5
505
  8
0
 10
1434.546702
 20
623.72262
 30
0.0
 11
1463.881253
 21
623.72262
 31
0.0
  0
LINE
  5
506
  8
0
 10
1434.546702
 20
603.727445
 30
0.0
 11
1463.881253
 21
603.727445
 31
0.0
  0
LINE
  5
507
  8
0
 10
1484.792004
 20
703.702208
 30
0.0
 11
1474.336629
 21
703.702208
 31
0.0
  0
LINE
  5
508
  8
0
 10
1463.881253
 20
703.702208
 30
0.0
 11
1474.336629
 21
703.702208
 31
0.0
  0
LINE
  5
509
  8
0
 10
1608.739751
 20
365.936764
 30
0.0
 11
1732.623016
 21
365.936764
 31
0.0
  0
LINE
  5
50A
  8
0
 62
     8
 10
1708.809511
 20
415.336356
 30
0.0
 11
1732.623016
 21
407.985698
 31
0.0
  0
LINE
  5
50B
  8
0
 10
1551.850854
 20
375.124195
 30
0.0
 11
1608.739751
 21
375.124195
 31
0.0
  0
POLYLINE
  5
50C
  8
0
 66
     1
 10
0.0
 20
0.0
 30
0.0
 70
     1
  0
VERTEX
  5
585
  8
0
 10
1653.874803
 20
447.4463
 30
0.0
  0
VERTEX
  5
586
  8
0
 10
1653.874803
 20
392.511592
 30
0.0
  0
VERTEX
  5
587
  8
0
 10
1708.809511
 20
392.511592
 30
0.0
  0
VERTEX
  5
588
  8
0
 10
1708.809511
 20
447.4463
 30
0.0
  0
SEQEND
  5
589
  8
0
  0
LINE
  5
50D
  8
0
 62
     8
 10
1627.999994
 20
440.280318
 30
0.0
 11
1653.874803
 21
432.293384
 31
0.0
  0
LINE
  5
50E
  8
0
 62
     8
 10
1831.656456
 20
361.138578
 30
0.0
 11
1831.656456
 21
688.861416
 31
0.0
  0
LINE
  5
50F
  8
0
 62
     8
 10
1846.572454
 20
356.999997
 30
0.0
 11
1846.572454
 21
692.999997
 31
0.0
  0
LINE
  5
510
  8
0
 10
1795.999994
 20
361.138578
 30
0.0
 11
1846.572454
 21
361.138578
 31
0.0
  0
LINE
  5
511
  8
0
 10
1732.623016
 20
407.985698
 30
0.0
 11
1757.954402
 21
407.985698
 31
0.0
  0
LINE
  5
512
  8
0
 10
1795.999994
 20
688.861416
 30
0.0
 11
1846.572454
 21
688.861416
 31
0.0
  0
CIRCLE
  5
513
  8
0
 10
1766.851528
 20
720.509846
 30
0.0
 40
17.044647
  0
CIRCLE
  5
514
  8
0
 10
1766.851528
 20
720.509846
 30
0.0
 40
11.881849
  0
LINE
  5
515
  8
0
 10
1782.969395
 20
703.702208
 30
0.0
 11
1767.046033
 21
703.702208
 31
0.0
  0
LINE
  5
516
  8
0
 10
1757.954402
 20
703.702208
 30
0.0
 11
1767.046033
 21
703.702208
 31
0.0
  0
LINE
  5
517
  8
0
 10
1782.969395
 20
715.148629
 30
0.0
 11
1795.999994
 21
715.148629
 31
0.0
  0
LINE
  5
518
  8
0
 10
2271.999994
 20
372.686529
 30
0.0
 11
2271.999994
 21
677.313465
 31
0.0
  0
LINE
  5
519
  8
0
 62
     8
 10
2223.397649
 20
692.999997
 30
0.0
 11
2223.397649
 21
356.999997
 31
0.0
  0
LINE
  5
51A
  8
0
 10
2233.064455
 20
692.999997
 30
0.0
 11
2233.064455
 21
356.999997
 31
0.0
  0
LINE
  5
51B
  8
0
 10
2271.999994
 20
372.686529
 30
0.0
 11
2233.064455
 21
356.999997
 31
0.0
  0
LINE
  5
51C
  8
0
 10
2271.999994
 20
677.313465
 30
0.0
 11
2233.064455
 21
692.999997
 31
0.0
  0
ENDBLK
  5
51E
  8
0
  0
ENDSEC
  0
SECTION
  2
ENTITIES
  0
INSERT
  5
232
  8
0
  2
A$C4B960F43
 10
-379.011689
 20
92.68551
 30
0.0
  0
INSERT
  5
233
  8
0
  2
A$C7C2F2BA7
 10
372.849015
 20
318.035383
 30
0.0
  0
TEXT
  8
0
  40
30
  5
58E
  62
5
  72
0
  71
0
 10
-110.440
 20
129.405
 30
0.000000
  1
3488753
  0
TEXT
  8
0
  40
30
  5
58F
  62
5
  72
0
  71
0
 10
810.190
 20
129.405
 30
0.000000
  1
GI/EMME 3000 t.c.
  0
TEXT
  8
0
  40
30
  5
590
  62
5
  72
0
  71
0
 10
1984.99
 20
129.405
 30
0.000000
  1
1:1
  0
INSERT
  5
487
  8
0
  2
A$C0B3C676A
 10
-241.37433
 20
1837.57492
 30
0.0
  0
INSERT
  5
51F
  8
0
  2
A$C52126C33
 10
-241.37433
 20
1076.095975
 30
0.0
  0
ENDSEC
  0
EOF
