  0
SECTION
  2
HEADER
  9
$ACADVER
  1
AC1009
  9
$INSBASE
 10
104.238785
 20
6412.64879
 30
0.0
  9
$EXTMIN
 10
0.0
 20
0.0
 30
0.0
  9
$EXTMAX
 10
3709.946276
 20
2586.448951
 30
0.0
  9
$LIMMIN
 10
0.0
 20
0.0
  9
$LIMMAX
 10
12.0
 20
9.0
  9
$ORTHOMODE
 70
     1
  9
$REGENMODE
 70
     1
  9
$FILLMODE
 70
     1
  9
$QTEXTMODE
 70
     0
  9
$MIRRTEXT
 70
     1
  9
$DRAGMODE
 70
     2
  9
$LTSCALE
 40
5.0
  9
$OSMODE
 70
   167
  9
$ATTMODE
 70
     1
  9
$TEXTSIZE
 40
0.2
  9
$TRACEWID
 40
0.05
  9
$TEXTSTYLE
  7
STANDARD
  9
$CLAYER
  8
0
  9
$CELTYPE
  6
BYLAYER
  9
$CECOLOR
 62
     8
  9
$DIMSCALE
 40
1.0
  9
$DIMASZ
 40
0.18
  9
$DIMEXO
 40
0.0625
  9
$DIMDLI
 40
0.38
  9
$DIMRND
 40
0.0
  9
$DIMDLE
 40
0.0
  9
$DIMEXE
 40
0.18
  9
$DIMTP
 40
0.0
  9
$DIMTM
 40
0.0
  9
$DIMTXT
 40
0.18
  9
$DIMCEN
 40
0.09
  9
$DIMTSZ
 40
0.0
  9
$DIMTOL
 70
     0
  9
$DIMLIM
 70
     0
  9
$DIMTIH
 70
     1
  9
$DIMTOH
 70
     1
  9
$DIMSE1
 70
     0
  9
$DIMSE2
 70
     0
  9
$DIMTAD
 70
     0
  9
$DIMZIN
 70
     0
  9
$DIMBLK
  1

  9
$DIMASO
 70
     1
  9
$DIMSHO
 70
     1
  9
$DIMPOST
  1

  9
$DIMAPOST
  1

  9
$DIMALT
 70
     0
  9
$DIMALTD
 70
     2
  9
$DIMALTF
 40
25.4
  9
$DIMLFAC
 40
1.0
  9
$DIMTOFL
 70
     0
  9
$DIMTVP
 40
0.0
  9
$DIMTIX
 70
     0
  9
$DIMSOXD
 70
     0
  9
$DIMSAH
 70
     0
  9
$DIMBLK1
  1

  9
$DIMBLK2
  1

  9
$DIMSTYLE
  2
STANDARD
  9
$DIMCLRD
 70
     0
  9
$DIMCLRE
 70
     0
  9
$DIMCLRT
 70
     0
  9
$DIMTFAC
 40
1.0
  9
$DIMGAP
 40
0.09
  9
$LUNITS
 70
     2
  9
$LUPREC
 70
     4
  9
$SKETCHINC
 40
0.1
  9
$FILLETRAD
 40
3.0
  9
$AUNITS
 70
     0
  9
$AUPREC
 70
     0
  9
$MENU
  1
.
  9
$ELEVATION
 40
0.0
  9
$PELEVATION
 40
0.0
  9
$THICKNESS
 40
0.0
  9
$LIMCHECK
 70
     0
  9
$BLIPMODE
 70
     0
  9
$CHAMFERA
 40
0.0
  9
$CHAMFERB
 40
0.0
  9
$SKPOLY
 70
     1
  9
$TDCREATE
 40
2451214.878023
  9
$TDUPDATE
 40
2451957.490127
  9
$TDINDWG
 40
0.114549
  9
$TDUSRTIMER
 40
0.114549
  9
$USRTIMER
 70
     1
  9
$ANGBASE
 50
0.0
  9
$ANGDIR
 70
     0
  9
$PDMODE
 70
     0
  9
$PDSIZE
 40
0.0
  9
$PLINEWID
 40
0.0
  9
$COORDS
 70
     1
  9
$SPLFRAME
 70
     0
  9
$SPLINETYPE
 70
     6
  9
$SPLINESEGS
 70
     8
  9
$ATTDIA
 70
     0
  9
$ATTREQ
 70
     1
  9
$HANDLING
 70
     1
  9
$HANDSEED
  5
23C
  9
$SURFTAB1
 70
     6
  9
$SURFTAB2
 70
     6
  9
$SURFTYPE
 70
     6
  9
$SURFU
 70
     6
  9
$SURFV
 70
     6
  9
$UCSNAME
  2

  9
$UCSORG
 10
0.0
 20
0.0
 30
0.0
  9
$UCSXDIR
 10
1.0
 20
0.0
 30
0.0
  9
$UCSYDIR
 10
0.0
 20
1.0
 30
0.0
  9
$PUCSNAME
  2

  9
$PUCSORG
 10
0.0
 20
0.0
 30
0.0
  9
$PUCSXDIR
 10
1.0
 20
0.0
 30
0.0
  9
$PUCSYDIR
 10
0.0
 20
1.0
 30
0.0
  9
$USERI1
 70
     0
  9
$USERI2
 70
     0
  9
$USERI3
 70
     0
  9
$USERI4
 70
     0
  9
$USERI5
 70
     0
  9
$USERR1
 40
0.0
  9
$USERR2
 40
0.0
  9
$USERR3
 40
0.0
  9
$USERR4
 40
0.0
  9
$USERR5
 40
0.0
  9
$WORLDVIEW
 70
     1
  9
$SHADEDGE
 70
     3
  9
$SHADEDIF
 70
    70
  9
$TILEMODE
 70
     1
  9
$MAXACTVP
 70
    48
  9
$PLIMCHECK
 70
     0
  9
$PEXTMIN
 10
1.000000E+020
 20
1.000000E+020
 30
1.000000E+020
  9
$PEXTMAX
 10
-1.000000E+020
 20
-1.000000E+020
 30
-1.000000E+020
  9
$PLIMMIN
 10
0.0
 20
0.0
  9
$PLIMMAX
 10
12.0
 20
9.0
  9
$UNITMODE
 70
     0
  9
$VISRETAIN
 70
     1
  9
$PLINEGEN
 70
     0
  9
$PSLTSCALE
 70
     1
  0
ENDSEC
  0
SECTION
  2
TABLES
  0
TABLE
  2
VPORT
 70
     3
  0
VPORT
  2
*ACTIVE
 70
     0
 10
0.0
 20
0.0
 11
1.0
 21
1.0
 12
1854.973138
 22
1293.224475
 13
0.0
 23
0.0
 14
0.5
 24
0.5
 15
0.5
 25
0.5
 16
0.0
 26
0.0
 36
1.0
 17
0.0
 27
0.0
 37
0.0
 40
2616.699815
 41
1.882813
 42
50.0
 43
0.0
 44
0.0
 50
0.0
 51
0.0
 71
     0
 72
   100
 73
     1
 74
     1
 75
     0
 76
     0
 77
     0
 78
     0
  0
ENDTAB
  0
TABLE
  2
LTYPE
 70
     1
  0
LTYPE
  2
CONTINUOUS
 70
     0
  3
Solid line
 72
    65
 73
     0
 40
0.0
  0
ENDTAB
  0
TABLE
  2
LAYER
 70
     3
  0
LAYER
  2
0
 70
     0
 62
     7
  6
CONTINUOUS
  0
LAYER
  2
CONTORNO_PAGINA
 70
     0
 62
     7
  6
CONTINUOUS
  0
LAYER
  2
LAYER1
 70
     0
 62
     7
  6
CONTINUOUS
  0
ENDTAB
  0
TABLE
  2
STYLE
 70
     2
  0
STYLE
  2
STANDARD
 70
     0
 40
0.0
 41
1.0
 50
0.0
 71
     0
 42
0.2
  3
txt
  4

  0
STYLE
  2
SIMPLEX_INCLINATO
 70
     0
 40
2.0
 41
1.0
 50
15.0
 71
     0
 42
89.952478
  3
simplex.shx
  4

  0
ENDTAB
  0
TABLE
  2
VIEW
 70
     0
  0
ENDTAB
  0
TABLE
  2
UCS
 70
     0
  0
ENDTAB
  0
TABLE
  2
APPID
 70
     1
  0
APPID
  2
ACAD
 70
     0
  0
ENDTAB
  0
TABLE
  2
DIMSTYLE
 70
     1
  0
DIMSTYLE
  2
STANDARD
 70
     0
  3

  4

  5

  6

  7

 40
1.0
 41
0.18
 42
0.0625
 43
0.38
 44
0.18
 45
0.0
 46
0.0
 47
0.0
 48
0.0
140
0.18
141
0.09
142
0.0
143
25.4
144
1.0
145
0.0
146
1.0
147
0.09
 71
     0
 72
     0
 73
     1
 74
     1
 75
     0
 76
     0
 77
     0
 78
     0
170
     0
171
     2
172
     0
173
     0
174
     0
175
     0
176
     0
177
     0
178
     0
  0
ENDTAB
  0
ENDSEC
  0
SECTION
  2
BLOCKS
  0
BLOCK
  8
0
  2
$MODEL_SPACE
 70
     0
 10
0.0
 20
0.0
 30
0.0
  3
$MODEL_SPACE
  1

  0
ENDBLK
  5
6
  8
0
  0
BLOCK
 67
     1
  8
0
  2
$PAPER_SPACE
 70
     0
 10
0.0
 20
0.0
 30
0.0
  3
$PAPER_SPACE
  1

  0
ENDBLK
  5
9
 67
     1
  8
0
  0
BLOCK
  8
0
 62
     8
  2
A$C03BD4E36
 70
     0
 10
0.0
 20
0.0
 30
0.0
  3
A$C03BD4E36
  1

  0
LINE
  5
6C
  8
0
 62
     8
 10
876.640367
 20
772.661752
 30
0.0
 11
886.873496
 21
772.661752
 31
0.0
  0
LINE
  5
6D
  8
0
 62
     8
 10
956.3219
 20
764.138535
 30
0.0
 11
886.873496
 21
764.138535
 31
0.0
  0
LINE
  5
6E
  8
0
 62
     8
 10
956.3219
 20
756.533689
 30
0.0
 11
886.873496
 21
756.533689
 31
0.0
  0
LINE
  5
6F
  8
0
 62
     8
 10
886.873496
 20
772.661752
 30
0.0
 11
886.873496
 21
661.260716
 31
0.0
  0
LINE
  5
70
  8
0
 62
     8
 10
874.261683
 20
661.260716
 30
0.0
 11
874.261683
 21
651.362108
 31
0.0
  0
LINE
  5
71
  8
0
 62
     8
 10
874.261683
 20
661.260716
 30
0.0
 11
876.640367
 21
772.661752
 31
0.0
  0
LINE
  5
72
  8
0
 62
     8
 10
874.261683
 20
661.260716
 30
0.0
 11
956.3219
 21
661.260716
 31
0.0
  0
LINE
  5
73
  8
0
 62
     8
 10
956.3219
 20
790.248006
 30
0.0
 11
956.3219
 21
661.260716
 31
0.0
  0
LINE
  5
74
  8
0
 62
     8
 10
966.220507
 20
790.248006
 30
0.0
 11
956.3219
 21
790.248006
 31
0.0
  0
LINE
  5
75
  8
0
 62
     8
 10
972.427712
 20
740.405601
 30
0.0
 11
966.220507
 21
740.405601
 31
0.0
  0
LINE
  5
76
  8
0
 62
     8
 10
972.427712
 20
780.266624
 30
0.0
 11
966.220507
 21
780.266624
 31
0.0
  0
LINE
  5
77
  8
0
 62
     8
 10
966.220507
 20
715.14863
 30
0.0
 11
966.220507
 21
790.248006
 31
0.0
  0
POLYLINE
  5
78
  8
0
 66
     1
 10
0.0
 20
0.0
 30
0.0
 70
     1
  0
VERTEX
  5
1FB
  8
0
 10
972.427712
 20
792.230277
 30
0.0
  0
VERTEX
  5
1FC
  8
0
 10
1091.000139
 20
792.230277
 30
0.0
  0
VERTEX
  5
1FD
  8
0
 10
1091.000139
 20
728.441947
 30
0.0
  0
VERTEX
  5
1FE
  8
0
 10
972.427712
 20
728.441947
 30
0.0
  0
SEQEND
  5
1FF
  8
0
  0
LINE
  5
79
  8
0
 10
1796.000007
 20
677.313466
 30
0.0
 11
1757.064468
 21
692.999998
 31
0.0
  0
LINE
  5
7A
  8
0
 10
1370.572467
 20
692.999998
 30
0.0
 11
1757.064468
 21
692.999998
 31
0.0
  0
LINE
  5
7B
  8
0
 10
1276.969408
 20
703.70221
 30
0.0
 11
1261.046046
 21
703.70221
 31
0.0
  0
LINE
  5
7C
  8
0
 10
1251.954415
 20
703.70221
 30
0.0
 11
1261.046046
 21
703.70221
 31
0.0
  0
LINE
  5
7D
  8
0
 10
1276.969408
 20
715.14863
 30
0.0
 11
1320.000007
 21
715.14863
 31
0.0
  0
CIRCLE
  5
7E
  8
0
 10
1260.851541
 20
720.509847
 30
0.0
 40
11.881849
  0
CIRCLE
  5
7F
  8
0
 10
1260.851541
 20
720.509847
 30
0.0
 40
17.044647
  0
LINE
  5
80
  8
0
 10
966.220507
 20
715.14863
 30
0.0
 11
978.766959
 21
715.14863
 31
0.0
  0
LINE
  5
81
  8
0
 10
991.31341
 20
715.14863
 30
0.0
 11
978.766959
 21
715.14863
 31
0.0
  0
LINE
  5
82
  8
0
 10
991.31341
 20
663.905839
 30
0.0
 11
1251.954415
 21
663.905839
 31
0.0
  0
LINE
  5
83
  8
0
 10
908.214143
 20
647.502526
 30
0.0
 11
931.019047
 21
647.502526
 31
0.0
  0
LINE
  5
84
  8
0
 10
908.214143
 20
588.005092
 30
0.0
 11
908.214143
 21
647.502526
 31
0.0
  0
LINE
  5
85
  8
0
 10
931.019047
 20
588.005092
 30
0.0
 11
931.019047
 21
647.502526
 31
0.0
  0
LINE
  5
86
  8
0
 10
622.820562
 20
619.472936
 30
0.0
 11
564.043368
 21
619.472936
 31
0.0
  0
LINE
  5
87
  8
0
 10
591.038991
 20
513.702461
 30
0.0
 11
591.038991
 21
618.871684
 31
0.0
  0
LINE
  5
88
  8
0
 10
598.783528
 20
517.191327
 30
0.0
 11
598.783528
 21
618.871684
 31
0.0
  0
LINE
  5
89
  8
0
 10
564.043368
 20
619.472936
 30
0.0
 11
908.214143
 21
619.472936
 31
0.0
  0
LINE
  5
8A
  8
0
 10
931.019047
 20
643.467146
 30
0.0
 11
966.220507
 21
643.467146
 31
0.0
  0
LINE
  5
8B
  8
0
 10
931.019047
 20
619.472936
 30
0.0
 11
966.220507
 21
619.472936
 31
0.0
  0
LINE
  5
8C
  8
0
 10
1320.000007
 20
688.861417
 30
0.0
 11
1370.572467
 21
688.861417
 31
0.0
  0
LINE
  5
8D
  8
0
 10
1320.000007
 20
334.851367
 30
0.0
 11
1320.000007
 21
715.14863
 31
0.0
  0
LINE
  5
8E
  8
0
 62
     8
 10
1355.656469
 20
361.138579
 30
0.0
 11
1355.656469
 21
688.861417
 31
0.0
  0
LINE
  5
8F
  8
0
 62
     8
 10
1370.572467
 20
356.999998
 30
0.0
 11
1370.572467
 21
692.999998
 31
0.0
  0
LINE
  5
90
  8
0
 10
1796.000007
 20
372.68653
 30
0.0
 11
1796.000007
 21
677.313466
 31
0.0
  0
LINE
  5
91
  8
0
 62
     8
 10
1747.397662
 20
692.999998
 30
0.0
 11
1747.397662
 21
356.999998
 31
0.0
  0
LINE
  5
92
  8
0
 10
1757.064468
 20
692.999998
 30
0.0
 11
1757.064468
 21
356.999998
 31
0.0
  0
LINE
  5
93
  8
0
 10
1261.046046
 20
703.70221
 30
0.0
 11
1261.046046
 21
346.297787
 31
0.0
  0
LINE
  5
94
  8
0
 10
1251.954415
 20
346.297787
 30
0.0
 11
1251.954415
 21
703.70221
 31
0.0
  0
LINE
  5
95
  8
0
 62
     8
 10
1276.969408
 20
334.851367
 30
0.0
 11
1276.969408
 21
715.14863
 31
0.0
  0
LINE
  5
96
  8
0
 62
     8
 10
978.766959
 20
715.14863
 30
0.0
 11
978.766959
 21
336.778343
 31
0.0
  0
LINE
  5
97
  8
0
 10
991.31341
 20
334.851367
 30
0.0
 11
991.31341
 21
715.14863
 31
0.0
  0
LINE
  5
98
  8
0
 10
966.220507
 20
334.851367
 30
0.0
 11
966.220507
 21
715.14863
 31
0.0
  0
LINE
  5
99
  8
0
 10
577.666861
 20
467.671162
 30
0.0
 11
577.666861
 21
615.596394
 31
0.0
  0
LINE
  5
9A
  8
0
 10
507.662652
 20
637.12716
 30
0.0
 11
507.662652
 21
643.467146
 31
0.0
  0
LINE
  5
9B
  8
0
 10
482.58857
 20
651.362108
 30
0.0
 11
495.329815
 21
651.362108
 31
0.0
  0
LINE
  5
9C
  8
0
 10
367.763575
 20
628.165622
 30
0.0
 11
367.763575
 21
522.54886
 31
0.0
  0
POLYLINE
  5
9D
  8
0
 66
     1
 10
0.0
 20
0.0
 30
0.0
 70
     1
  0
VERTEX
  5
200
  8
0
 10
397.974721
 20
600.387824
 30
0.0
  0
VERTEX
  5
201
  8
0
 10
404.84011
 20
612.279027
 30
0.0
  0
VERTEX
  5
202
  8
0
 10
397.974721
 20
624.170229
 30
0.0
  0
VERTEX
  5
203
  8
0
 10
384.243943
 20
624.170229
 30
0.0
  0
VERTEX
  5
204
  8
0
 10
377.378554
 20
612.279027
 30
0.0
  0
VERTEX
  5
205
  8
0
 10
384.243943
 20
600.387824
 30
0.0
  0
SEQEND
  5
206
  8
0
  0
LINE
  5
9E
  8
0
 10
367.763575
 20
628.165622
 30
0.0
 11
477.774546
 21
628.165622
 31
0.0
  0
LINE
  5
9F
  8
0
 10
322.423773
 20
664.894499
 30
0.0
 11
235.011574
 21
504.806448
 31
0.0
  0
LINE
  5
A0
  8
0
 10
313.926813
 20
667.582904
 30
0.0
 11
192.894498
 21
733.669665
 31
0.0
  0
POLYLINE
  5
A1
  8
0
 66
     1
 10
0.0
 20
0.0
 30
0.0
  0
VERTEX
  5
207
  8
0
 10
482.58857
 20
651.362108
 30
0.0
  0
VERTEX
  5
208
  8
0
 10
426.560148
 20
651.362108
 30
0.0
 42
-0.065507
  0
VERTEX
  5
209
  8
0
 10
322.423773
 20
664.894499
 30
0.0
  0
SEQEND
  5
20A
  8
0
  0
LINE
  5
A2
  8
0
 10
456.336321
 20
615.596394
 30
0.0
 11
456.336321
 21
467.671162
 31
0.0
  0
LINE
  5
A3
  8
0
 10
192.894498
 20
733.669665
 30
0.0
 11
0.000007
 21
380.399717
 31
0.0
  0
LINE
  5
A4
  8
0
 10
313.926813
 20
667.582904
 30
0.0
 11
121.032323
 21
314.312956
 31
0.0
  0
POLYLINE
  5
A5
  8
0
 66
     1
 10
0.0
 20
0.0
 30
0.0
  0
VERTEX
  5
20B
  8
0
 10
367.763575
 20
619.587621
 30
0.0
 42
0.520672
  0
VERTEX
  5
20C
  8
0
 10
277.777765
 20
87.910216
 30
0.0
  0
SEQEND
  5
20D
  8
0
  0
LINE
  5
A6
  8
0
 10
507.662652
 20
643.467146
 30
0.0
 11
908.214143
 21
643.467146
 31
0.0
  0
LINE
  5
A7
  8
0
 10
482.58857
 20
651.362108
 30
0.0
 11
966.220507
 21
651.362108
 31
0.0
  0
ARC
  5
A8
  8
0
 10
516.630181
 20
564.67772
 30
0.0
 40
72.460513
 50
44.644775
 51
135.355225
  0
LINE
  5
A9
  8
0
 10
577.666861
 20
615.596394
 30
0.0
 11
456.336321
 21
615.596394
 31
0.0
  0
CIRCLE
  5
AA
  8
0
 10
537.945921
 20
674.883721
 30
0.0
 40
16.396952
  0
CIRCLE
  5
AB
  8
0
 10
537.945921
 20
674.883721
 30
0.0
 40
23.521613
  0
POLYLINE
  5
AC
  8
0
 66
     1
 10
0.0
 20
0.0
 30
0.0
  0
VERTEX
  5
20E
  8
0
 10
553.246176
 20
651.362108
 30
0.0
  0
VERTEX
  5
20F
  8
0
 10
508.847823
 20
651.362108
 30
0.0
 42
0.094706
  0
VERTEX
  5
210
  8
0
 10
387.479978
 20
628.165622
 30
0.0
  0
SEQEND
  5
211
  8
0
  0
LINE
  5
AD
  8
0
 62
     1
 10
277.777765
 20
75.543671
 30
0.0
 11
731.648367
 21
75.543671
 31
0.0
  0
LINE
  5
AE
  8
0
 10
456.336321
 20
467.671162
 30
0.0
 11
577.666861
 21
467.671162
 31
0.0
  0
LINE
  5
AF
  8
0
 10
277.777765
 20
-0.000002
 30
0.0
 11
731.648367
 21
-0.000002
 31
0.0
  0
LINE
  5
B0
  8
0
 10
559.156127
 20
354.155338
 30
0.0
 11
489.823545
 21
354.155338
 31
0.0
  0
LINE
  5
B1
  8
0
 62
     8
 10
733.136078
 20
302.231669
 30
0.0
 11
489.823545
 21
302.231669
 31
0.0
  0
LINE
  5
B2
  8
0
 62
     8
 10
733.136078
 20
199.166299
 30
0.0
 11
489.823545
 21
199.166299
 31
0.0
  0
LINE
  5
B3
  8
0
 62
     8
 10
733.136078
 20
224.932641
 30
0.0
 11
489.823545
 21
224.932641
 31
0.0
  0
LINE
  5
B4
  8
0
 62
     8
 10
733.136078
 20
276.465326
 30
0.0
 11
489.823545
 21
276.465326
 31
0.0
  0
LINE
  5
B5
  8
0
 62
     8
 10
733.136078
 20
250.698984
 30
0.0
 11
489.823545
 21
250.698984
 31
0.0
  0
LINE
  5
B6
  8
0
 62
     8
 10
733.136078
 20
173.399956
 30
0.0
 11
489.823545
 21
173.399956
 31
0.0
  0
LINE
  5
B7
  8
0
 10
733.136078
 20
147.24263
 30
0.0
 11
489.823545
 21
147.24263
 31
0.0
  0
LINE
  5
B8
  8
0
 62
     8
 10
733.136078
 20
327.998012
 30
0.0
 11
489.823545
 21
327.998012
 31
0.0
  0
ARC
  5
B9
  8
0
 10
504.713066
 20
290.979281
 30
0.0
 40
175.197394
 50
33.318685
 51
158.862995
  0
LINE
  5
BA
  8
0
 10
121.032323
 20
314.312956
 30
0.0
 11
0.000007
 21
380.399717
 31
0.0
  0
LINE
  5
BB
  8
0
 10
424.059971
 20
170.434429
 30
0.0
 11
489.823545
 21
147.24263
 31
0.0
  0
LINE
  5
BC
  8
0
 10
416.618969
 20
353.568838
 30
0.0
 11
416.618969
 21
147.82913
 31
0.0
  0
LINE
  5
BD
  8
0
 10
489.823545
 20
147.24263
 30
0.0
 11
489.823545
 21
338.845002
 31
0.0
  0
LINE
  5
BE
  8
0
 10
277.777765
 20
75.543671
 30
0.0
 11
305.440065
 21
196.279147
 31
0.0
  0
LINE
  5
BF
  8
0
 10
305.440065
 20
353.568838
 30
0.0
 11
305.440065
 21
147.82913
 31
0.0
  0
LINE
  5
C0
  8
0
 10
416.032469
 20
147.24263
 30
0.0
 11
306.026565
 21
147.24263
 31
0.0
  0
LINE
  5
C1
  8
0
 10
277.777765
 20
75.543671
 30
0.0
 11
277.777765
 21
-0.000002
 31
0.0
  0
LINE
  5
C2
  8
0
 10
306.026565
 20
147.24263
 30
0.0
 11
305.440065
 21
147.82913
 31
0.0
  0
LINE
  5
C3
  8
0
 10
416.618969
 20
147.82913
 30
0.0
 11
416.032469
 21
147.24263
 31
0.0
  0
LINE
  5
C4
  8
0
 10
416.032469
 20
354.155338
 30
0.0
 11
306.026565
 21
354.155338
 31
0.0
  0
ARC
  5
C5
  8
0
 62
     1
 10
509.339781
 20
285.266047
 30
0.0
 40
216.243099
 50
104.188366
 51
199.452319
  0
LINE
  5
C6
  8
0
 10
305.440065
 20
353.568838
 30
0.0
 11
306.026565
 21
354.155338
 31
0.0
  0
LINE
  5
C7
  8
0
 10
424.059971
 20
330.963539
 30
0.0
 11
489.823545
 21
354.155338
 31
0.0
  0
LINE
  5
C8
  8
0
 10
424.059971
 20
330.963539
 30
0.0
 11
424.059971
 21
170.434429
 31
0.0
  0
LINE
  5
C9
  8
0
 10
416.032469
 20
354.155338
 30
0.0
 11
416.618969
 21
353.568838
 31
0.0
  0
LINE
  5
CA
  8
0
 10
489.823545
 20
354.155338
 30
0.0
 11
489.823545
 21
162.552966
 31
0.0
  0
LINE
  5
CB
  8
0
 10
367.763575
 20
522.54886
 30
0.0
 11
456.336321
 21
522.54886
 31
0.0
  0
POLYLINE
  5
CC
  8
0
 66
     1
 10
0.0
 20
0.0
 30
0.0
 70
     1
  0
VERTEX
  5
212
  8
0
 10
397.974721
 20
525.845406
 30
0.0
  0
VERTEX
  5
213
  8
0
 10
404.84011
 20
537.736609
 30
0.0
  0
VERTEX
  5
214
  8
0
 10
397.974721
 20
549.627811
 30
0.0
  0
VERTEX
  5
215
  8
0
 10
384.243943
 20
549.627811
 30
0.0
  0
VERTEX
  5
216
  8
0
 10
377.378554
 20
537.736609
 30
0.0
  0
VERTEX
  5
217
  8
0
 10
384.243943
 20
525.845406
 30
0.0
  0
SEQEND
  5
218
  8
0
  0
LINE
  5
CD
  8
0
 10
1320.000007
 20
361.138579
 30
0.0
 11
1370.572467
 21
361.138579
 31
0.0
  0
LINE
  5
CE
  8
0
 10
966.220507
 20
359.564275
 30
0.0
 11
928.038054
 21
417.155961
 31
0.0
  0
LINE
  5
CF
  8
0
 10
717.91636
 20
417.155961
 30
0.0
 11
966.220507
 21
417.155961
 31
0.0
  0
LINE
  5
D0
  8
0
 10
816.474819
 20
354.155338
 30
0.0
 11
1025.779138
 21
297.906379
 31
0.0
  0
LINE
  5
D1
  8
0
 10
816.474819
 20
147.24263
 30
0.0
 11
1025.779138
 21
203.491589
 31
0.0
  0
LINE
  5
D2
  8
0
 10
779.557431
 20
354.155338
 30
0.0
 11
779.557431
 21
147.24263
 31
0.0
  0
LINE
  5
D3
  8
0
 10
816.474819
 20
354.155338
 30
0.0
 11
816.474819
 21
147.24263
 31
0.0
  0
LINE
  5
D4
  8
0
 10
733.136078
 20
354.155338
 30
0.0
 11
733.136078
 21
147.24263
 31
0.0
  0
LINE
  5
D5
  8
0
 10
733.136078
 20
147.24263
 30
0.0
 11
779.557431
 21
186.147165
 31
0.0
  0
LINE
  5
D6
  8
0
 10
784.129454
 20
31.648333
 30
0.0
 11
784.129454
 21
153.729449
 31
0.0
  0
LINE
  5
D7
  8
0
 10
731.648367
 20
30.958333
 30
0.0
 11
783.439454
 21
30.958333
 31
0.0
  0
LINE
  5
D8
  8
0
 10
731.648367
 20
38.70287
 30
0.0
 11
775.694917
 21
38.70287
 31
0.0
  0
LINE
  5
D9
  8
0
 10
731.648367
 20
75.543671
 30
0.0
 11
731.648367
 21
-0.000002
 31
0.0
  0
LINE
  5
DA
  8
0
 10
731.648367
 20
75.543671
 30
0.0
 11
715.221066
 21
147.24263
 31
0.0
  0
LINE
  5
DB
  8
0
 10
776.384917
 20
39.39287
 30
0.0
 11
776.384917
 21
147.238953
 31
0.0
  0
LINE
  5
DC
  8
0
 10
775.694917
 20
38.70287
 30
0.0
 11
776.384917
 21
39.39287
 31
0.0
  0
LINE
  5
DD
  8
0
 10
784.129454
 20
31.648333
 30
0.0
 11
783.439454
 21
30.958333
 31
0.0
  0
LINE
  5
DE
  8
0
 10
816.474819
 20
147.24263
 30
0.0
 11
779.557431
 21
147.24263
 31
0.0
  0
LINE
  5
DF
  8
0
 10
733.136078
 20
354.155338
 30
0.0
 11
779.557431
 21
315.250803
 31
0.0
  0
LINE
  5
E0
  8
0
 10
783.594947
 20
362.005912
 30
0.0
 11
598.783528
 21
517.191327
 31
0.0
  0
LINE
  5
E1
  8
0
 10
775.85041
 20
358.111195
 30
0.0
 11
591.389651
 21
513.010346
 31
0.0
  0
LINE
  5
E2
  8
0
 10
663.803496
 20
339.605412
 30
0.0
 11
663.803496
 21
387.214397
 31
0.0
  0
ARC
  5
E3
  8
0
 10
535.732698
 20
275.455237
 30
0.0
 40
199.932137
 50
23.180812
 51
37.113212
  0
LINE
  5
E4
  8
0
 10
559.156127
 20
339.605412
 30
0.0
 11
559.156127
 21
387.214397
 31
0.0
  0
LINE
  5
E5
  8
0
 10
733.136078
 20
354.155338
 30
0.0
 11
663.803496
 21
354.155338
 31
0.0
  0
LINE
  5
E6
  8
0
 10
663.803496
 20
387.214397
 30
0.0
 11
559.156127
 21
387.214397
 31
0.0
  0
ARC
  5
E7
  8
0
 62
     1
 10
466.531794
 20
225.872082
 30
0.0
 40
285.042722
 50
34.576082
 51
67.052397
  0
ARC
  5
E8
  8
0
 10
712.430108
 20
399.552696
 30
0.0
 40
17.605906
 50
109.053168
 51
191.333922
  0
LINE
  5
E9
  8
0
 10
816.474819
 20
354.155338
 30
0.0
 11
779.557431
 21
354.155338
 31
0.0
  0
LINE
  5
EA
  8
0
 10
775.85041
 20
358.111195
 30
0.0
 11
776.384917
 21
356.984844
 31
0.0
  0
LINE
  5
EB
  8
0
 10
776.384917
 20
354.159015
 30
0.0
 11
776.384917
 21
356.984844
 31
0.0
  0
LINE
  5
EC
  8
0
 10
784.129454
 20
347.668519
 30
0.0
 11
784.129454
 21
360.879561
 31
0.0
  0
LINE
  5
ED
  8
0
 10
784.129454
 20
360.879561
 30
0.0
 11
783.594947
 21
362.005912
 31
0.0
  0
LINE
  5
EE
  8
0
 62
     8
 10
1125.000007
 20
397.502914
 30
0.0
 11
1157.000007
 21
384.582839
 31
0.0
  0
LINE
  5
EF
  8
0
 10
1072.200478
 20
294.161725
 30
0.0
 11
1177.000007
 21
294.161725
 31
0.0
  0
LINE
  5
F0
  8
0
 10
1072.200478
 20
309.161725
 30
0.0
 11
1177.000007
 21
309.161725
 31
0.0
  0
LINE
  5
F1
  8
0
 10
1077.000007
 20
384.582839
 30
0.0
 11
1077.000007
 21
312.120077
 31
0.0
  0
LINE
  5
F2
  8
0
 10
1025.779138
 20
314.925019
 30
0.0
 11
1072.200478
 21
314.925019
 31
0.0
  0
LINE
  5
F3
  8
0
 10
1025.779138
 20
186.472948
 30
0.0
 11
1072.200478
 21
186.472948
 31
0.0
  0
LINE
  5
F4
  8
0
 10
1025.779138
 20
314.925019
 30
0.0
 11
1025.779138
 21
186.472948
 31
0.0
  0
LINE
  5
F5
  8
0
 10
991.31341
 20
334.851367
 30
0.0
 11
978.766959
 21
334.851367
 31
0.0
  0
LINE
  5
F6
  8
0
 10
966.220507
 20
334.851367
 30
0.0
 11
978.766959
 21
334.851367
 31
0.0
  0
LINE
  5
F7
  8
0
 10
1072.200478
 20
314.925019
 30
0.0
 11
1072.200478
 21
186.472948
 31
0.0
  0
LINE
  5
F8
  8
0
 10
991.31341
 20
384.582839
 30
0.0
 11
1077.000007
 21
384.582839
 31
0.0
  0
LINE
  5
F9
  8
0
 62
     8
 10
1077.000007
 20
384.582839
 30
0.0
 11
1109.000007
 21
397.502914
 31
0.0
  0
LINE
  5
FA
  8
0
 10
1157.000007
 20
384.582839
 30
0.0
 11
1157.000007
 21
309.161725
 31
0.0
  0
LINE
  5
FB
  8
0
 10
1177.000007
 20
309.161725
 30
0.0
 11
1177.000007
 21
294.161725
 31
0.0
  0
LINE
  5
FC
  8
0
 10
1276.969408
 20
334.851367
 30
0.0
 11
1320.000007
 21
334.851367
 31
0.0
  0
LINE
  5
FD
  8
0
 10
1251.954415
 20
346.297787
 30
0.0
 11
1261.046046
 21
346.297787
 31
0.0
  0
LINE
  5
FE
  8
0
 10
1276.969408
 20
346.297787
 30
0.0
 11
1261.046046
 21
346.297787
 31
0.0
  0
POLYLINE
  5
FF
  8
0
 66
     1
 10
0.0
 20
0.0
 30
0.0
 70
     1
  0
VERTEX
  5
219
  8
0
 10
1176.992766
 20
470.894141
 30
0.0
  0
VERTEX
  5
21A
  8
0
 10
1176.992766
 20
421.959433
 30
0.0
 42
0.414214
  0
VERTEX
  5
21B
  8
0
 10
1179.992766
 20
418.959433
 30
0.0
  0
VERTEX
  5
21C
  8
0
 10
1228.927474
 20
418.959433
 30
0.0
 42
0.414214
  0
VERTEX
  5
21D
  8
0
 10
1231.927474
 20
421.959433
 30
0.0
  0
VERTEX
  5
21E
  8
0
 10
1231.927474
 20
470.894141
 30
0.0
 42
0.414214
  0
VERTEX
  5
21F
  8
0
 10
1228.927474
 20
473.894141
 30
0.0
  0
VERTEX
  5
220
  8
0
 10
1179.992766
 20
473.894141
 30
0.0
 42
0.414214
  0
SEQEND
  5
221
  8
0
  0
LINE
  5
100
  8
0
 10
1157.000007
 20
384.582839
 30
0.0
 11
1251.954415
 21
384.582839
 31
0.0
  0
CIRCLE
  5
101
  8
0
 62
     8
 10
1213.453859
 20
435.467402
 30
0.0
 40
8.30471
  0
LINE
  5
102
  8
0
 10
1370.572467
 20
356.999998
 30
0.0
 11
1757.064468
 21
356.999998
 31
0.0
  0
LINE
  5
103
  8
0
 10
1796.000007
 20
372.68653
 30
0.0
 11
1757.064468
 21
356.999998
 31
0.0
  0
ENDBLK
  5
105
  8
0
 62
     8
  0
BLOCK
  8
0
 62
     8
  2
A$C3B0F6E25
 70
     0
 10
0.0
 20
0.0
 30
0.0
  3
A$C3B0F6E25
  1

  0
LINE
  5
10F
  8
0
 10
322.423773
 20
683.024014
 30
0.0
 11
966.220507
 21
683.024014
 31
0.0
  0
LINE
  5
110
  8
0
 10
508.162875
 20
408.979648
 30
0.0
 11
889.932533
 21
408.979648
 31
0.0
  0
LINE
  5
111
  8
0
 10
508.162875
 20
380.916245
 30
0.0
 11
889.932533
 21
380.916245
 31
0.0
  0
LINE
  5
112
  8
0
 10
390.137615
 20
308.363732
 30
0.0
 11
650.896353
 21
308.363732
 31
0.0
  0
LINE
  5
113
  8
0
 10
651.333827
 20
303.556581
 30
0.0
 11
390.137615
 21
303.556581
 31
0.0
  0
LINE
  5
114
  8
0
 10
367.763575
 20
271.292919
 30
0.0
 11
579.610187
 21
271.292919
 31
0.0
  0
LINE
  5
115
  8
0
 10
367.763575
 20
283.935
 30
0.0
 11
579.610187
 21
283.935
 31
0.0
  0
LINE
  5
116
  8
0
 10
367.763575
 20
343.768606
 30
0.0
 11
579.610187
 21
343.768606
 31
0.0
  0
LINE
  5
117
  8
0
 10
367.763575
 20
331.126525
 30
0.0
 11
579.610187
 21
331.126525
 31
0.0
  0
LINE
  5
118
  8
0
 10
651.333827
 20
359.212954
 30
0.0
 11
390.137615
 21
359.212954
 31
0.0
  0
LINE
  5
119
  8
0
 10
390.137615
 20
364.020104
 30
0.0
 11
650.896353
 21
364.020104
 31
0.0
  0
LINE
  5
11A
  8
0
 10
529.348559
 20
450.366799
 30
0.0
 11
604.27849
 21
450.366799
 31
0.0
  0
LINE
  5
11B
  8
0
 10
529.348559
 20
476.257526
 30
0.0
 11
604.27849
 21
476.257526
 31
0.0
  0
LINE
  5
11C
  8
0
 10
529.348559
 20
625.633201
 30
0.0
 11
604.27849
 21
625.633201
 31
0.0
  0
LINE
  5
11D
  8
0
 10
529.348559
 20
599.742474
 30
0.0
 11
604.27849
 21
599.742474
 31
0.0
  0
LINE
  5
11E
  8
0
 10
365.573922
 20
706.271478
 30
0.0
 11
647.85221
 21
706.271478
 31
0.0
  0
LINE
  5
11F
  8
0
 10
406.060373
 20
950.003112
 30
0.0
 11
603.365759
 21
950.003112
 31
0.0
  0
LINE
  5
120
  8
0
 10
385.950207
 20
950.003112
 30
0.0
 11
623.475925
 21
950.003112
 31
0.0
  0
LINE
  5
121
  8
0
 62
     8
 10
398.009634
 20
977.358853
 30
0.0
 11
611.416498
 21
977.358853
 31
0.0
  0
LINE
  5
122
  8
0
 10
425.651296
 20
1046.0
 30
0.0
 11
583.774836
 21
1046.0
 31
0.0
  0
LINE
  5
123
  8
0
 62
     8
 10
556.507183
 20
76.166678
 30
0.0
 11
488.534064
 21
76.166678
 31
0.0
  0
LINE
  5
124
  8
0
 62
     8
 10
556.507183
 20
101.427799
 30
0.0
 11
488.534064
 21
101.427799
 31
0.0
  0
LINE
  5
125
  8
0
 62
     8
 10
556.507183
 20
126.688919
 30
0.0
 11
488.534064
 21
126.688919
 31
0.0
  0
LINE
  5
126
  8
0
 62
     8
 10
727.075762
 20
25.644438
 30
0.0
 11
488.534064
 21
25.644438
 31
0.0
  0
LINE
  5
127
  8
0
 10
727.075762
 20
0.0
 30
0.0
 11
488.534064
 21
0.0
 31
0.0
  0
LINE
  5
128
  8
0
 62
     8
 10
727.075762
 20
50.905558
 30
0.0
 11
488.534064
 21
50.905558
 31
0.0
  0
LINE
  5
129
  8
0
 10
577.666861
 20
133.443024
 30
0.0
 11
456.336321
 21
133.443024
 31
0.0
  0
LINE
  5
12A
  8
0
 10
277.777765
 20
252.883437
 30
0.0
 11
277.777765
 21
132.814155
 31
0.0
  0
LINE
  5
12B
  8
0
 10
456.336321
 20
133.443024
 30
0.0
 11
456.336321
 21
271.292919
 31
0.0
  0
LINE
  5
12C
  8
0
 10
424.059971
 20
180.118539
 30
0.0
 11
424.059971
 21
22.737058
 31
0.0
  0
LINE
  5
12D
  8
0
 10
413.288991
 20
164.679822
 30
0.0
 11
305.440065
 21
164.679822
 31
0.0
  0
LINE
  5
12E
  8
0
 10
413.288991
 20
57.69874
 30
0.0
 11
305.440065
 21
57.69874
 31
0.0
  0
LINE
  5
12F
  8
0
 10
304.865065
 20
132.814155
 30
0.0
 11
277.777765
 21
132.814155
 31
0.0
  0
LINE
  5
130
  8
0
 10
304.865065
 20
164.104822
 30
0.0
 11
304.865065
 21
58.27374
 31
0.0
  0
LINE
  5
131
  8
0
 10
305.440065
 20
57.69874
 30
0.0
 11
304.865065
 21
58.27374
 31
0.0
  0
LINE
  5
132
  8
0
 10
424.059971
 20
22.737058
 30
0.0
 11
488.534064
 21
0.0
 31
0.0
  0
LINE
  5
133
  8
0
 10
413.863991
 20
164.104822
 30
0.0
 11
413.863991
 21
58.27374
 31
0.0
  0
LINE
  5
134
  8
0
 10
413.288991
 20
57.69874
 30
0.0
 11
413.863991
 21
58.27374
 31
0.0
  0
LINE
  5
135
  8
0
 10
413.288991
 20
164.679822
 30
0.0
 11
413.863991
 21
164.104822
 31
0.0
  0
LINE
  5
136
  8
0
 10
488.534064
 20
132.868024
 30
0.0
 11
488.534064
 21
15.010134
 31
0.0
  0
LINE
  5
137
  8
0
 10
488.534064
 20
0.0
 30
0.0
 11
488.534064
 21
132.868024
 31
0.0
  0
LINE
  5
138
  8
0
 10
478.518671
 20
133.443024
 30
0.0
 11
479.093671
 21
132.868024
 31
0.0
  0
LINE
  5
139
  8
0
 10
0.000007
 20
823.116564
 30
0.0
 11
322.423773
 21
823.116564
 31
0.0
  0
LINE
  5
13A
  8
0
 62
     1
 10
29.527967
 20
793.588604
 30
0.0
 11
292.895813
 21
793.588604
 31
0.0
  0
LINE
  5
13B
  8
0
 10
0.000007
 20
252.883437
 30
0.0
 11
322.423773
 21
252.883437
 31
0.0
  0
LINE
  5
13C
  8
0
 62
     1
 10
29.527967
 20
410.201166
 30
0.0
 11
292.895813
 21
410.201166
 31
0.0
  0
LINE
  5
13D
  8
0
 62
     1
 10
29.527967
 20
410.201166
 30
0.0
 11
29.527967
 21
793.588604
 31
0.0
  0
LINE
  5
13E
  8
0
 10
0.000007
 20
252.883437
 30
0.0
 11
0.000007
 21
823.116564
 31
0.0
  0
LINE
  5
13F
  8
0
 10
63.3604
 20
336.183496
 30
0.0
 11
95.87966
 21
336.183496
 31
0.0
  0
LINE
  5
140
  8
0
 10
63.3604
 20
383.709004
 30
0.0
 11
95.87966
 21
383.709004
 31
0.0
  0
LINE
  5
141
  8
0
 10
63.3604
 20
336.183496
 30
0.0
 11
63.3604
 21
383.709004
 31
0.0
  0
LINE
  5
142
  8
0
 10
95.87966
 20
336.183496
 30
0.0
 11
95.87966
 21
383.709004
 31
0.0
  0
LINE
  5
143
  8
0
 10
529.348559
 20
599.742474
 30
0.0
 11
529.348559
 21
625.633201
 31
0.0
  0
LINE
  5
144
  8
0
 10
508.162875
 20
392.975986
 30
0.0
 11
508.162875
 21
683.024014
 31
0.0
  0
LINE
  5
145
  8
0
 62
     1
 10
292.895813
 20
410.201166
 30
0.0
 11
292.895813
 21
793.588604
 31
0.0
  0
LINE
  5
146
  8
0
 10
322.423773
 20
252.883437
 30
0.0
 11
322.423773
 21
823.116564
 31
0.0
  0
LINE
  5
147
  8
0
 62
     1
 10
322.423773
 20
251.835017
 30
0.0
 11
456.336321
 21
251.835017
 31
0.0
  0
LINE
  5
148
  8
0
 10
322.423773
 20
392.975986
 30
0.0
 11
508.162875
 21
392.975986
 31
0.0
  0
LINE
  5
149
  8
0
 10
508.162875
 20
408.979648
 30
0.0
 11
508.162875
 21
380.916245
 31
0.0
  0
LINE
  5
14A
  8
0
 10
401.396209
 20
364.020104
 30
0.0
 11
401.396209
 21
392.975986
 31
0.0
  0
LINE
  5
14B
  8
0
 10
388.740899
 20
343.768606
 30
0.0
 11
388.740899
 21
392.975986
 31
0.0
  0
LINE
  5
14C
  8
0
 10
424.059971
 20
180.118539
 30
0.0
 11
456.336321
 21
191.500928
 31
0.0
  0
LINE
  5
14D
  8
0
 10
367.763575
 20
283.935
 30
0.0
 11
367.763575
 21
271.292919
 31
0.0
  0
LINE
  5
14E
  8
0
 10
378.99601
 20
261.640296
 30
0.0
 11
411.141098
 21
261.640296
 31
0.0
  0
LINE
  5
14F
  8
0
 10
378.99601
 20
261.640296
 30
0.0
 11
378.99601
 21
271.292919
 31
0.0
  0
LINE
  5
150
  8
0
 10
388.740899
 20
261.640296
 30
0.0
 11
388.740899
 21
271.292919
 31
0.0
  0
LINE
  5
151
  8
0
 10
401.396209
 20
261.640296
 30
0.0
 11
401.396209
 21
271.292919
 31
0.0
  0
LINE
  5
152
  8
0
 10
411.141098
 20
261.640296
 30
0.0
 11
411.141098
 21
271.292919
 31
0.0
  0
LINE
  5
153
  8
0
 10
378.99601
 20
321.473902
 30
0.0
 11
411.141098
 21
321.473902
 31
0.0
  0
LINE
  5
154
  8
0
 10
367.763575
 20
343.768606
 30
0.0
 11
367.763575
 21
331.126525
 31
0.0
  0
LINE
  5
155
  8
0
 10
378.99601
 20
321.473902
 30
0.0
 11
378.99601
 21
331.126525
 31
0.0
  0
LINE
  5
156
  8
0
 10
390.137615
 20
303.556581
 30
0.0
 11
390.137615
 21
308.363732
 31
0.0
  0
LINE
  5
157
  8
0
 10
401.396209
 20
308.363732
 30
0.0
 11
401.396209
 21
321.473902
 31
0.0
  0
LINE
  5
158
  8
0
 10
411.141098
 20
321.473902
 30
0.0
 11
411.141098
 21
331.126525
 31
0.0
  0
LINE
  5
159
  8
0
 10
388.740899
 20
283.935
 30
0.0
 11
388.740899
 21
321.473902
 31
0.0
  0
LINE
  5
15A
  8
0
 10
401.396209
 20
283.935
 30
0.0
 11
401.396209
 21
303.556581
 31
0.0
  0
LINE
  5
15B
  8
0
 10
390.137615
 20
359.212954
 30
0.0
 11
390.137615
 21
364.020104
 31
0.0
  0
LINE
  5
15C
  8
0
 10
401.396209
 20
343.768606
 30
0.0
 11
401.396209
 21
359.212954
 31
0.0
  0
LINE
  5
15D
  8
0
 10
529.348559
 20
450.366799
 30
0.0
 11
529.348559
 21
476.257526
 31
0.0
  0
LINE
  5
15E
  8
0
 10
385.950207
 20
731.038915
 30
0.0
 11
385.950207
 21
937.735675
 31
0.0
  0
LINE
  5
15F
  8
0
 62
     8
 10
424.255286
 20
722.609561
 30
0.0
 11
424.255286
 21
934.66503
 31
0.0
  0
LINE
  5
160
  8
0
 62
     8
 10
406.060373
 20
706.271478
 30
0.0
 11
406.060373
 21
950.003112
 31
0.0
  0
LINE
  5
161
  8
0
 62
     8
 10
460.64511
 20
722.609561
 30
0.0
 11
460.64511
 21
934.66503
 31
0.0
  0
LINE
  5
162
  8
0
 62
     8
 10
478.840023
 20
722.609561
 30
0.0
 11
478.840023
 21
934.66503
 31
0.0
  0
LINE
  5
163
  8
0
 62
     8
 10
442.450198
 20
722.609561
 30
0.0
 11
442.450198
 21
934.66503
 31
0.0
  0
LINE
  5
164
  8
0
 62
     8
 10
515.229848
 20
722.609561
 30
0.0
 11
515.229848
 21
934.66503
 31
0.0
  0
LINE
  5
165
  8
0
 62
     8
 10
533.42476
 20
722.609561
 30
0.0
 11
533.42476
 21
934.66503
 31
0.0
  0
LINE
  5
166
  8
0
 62
     8
 10
497.034935
 20
722.609561
 30
0.0
 11
497.034935
 21
934.66503
 31
0.0
  0
LINE
  5
167
  8
0
 10
385.950207
 20
731.038915
 30
0.0
 11
406.060373
 21
706.271478
 31
0.0
  0
LINE
  5
168
  8
0
 10
365.573922
 20
706.271478
 30
0.0
 11
365.573922
 21
683.024014
 31
0.0
  0
LINE
  5
169
  8
0
 10
385.950207
 20
950.003112
 30
0.0
 11
385.950207
 21
974.81518
 31
0.0
  0
LINE
  5
16A
  8
0
 10
385.950207
 20
937.735675
 30
0.0
 11
406.060373
 21
950.003112
 31
0.0
  0
ARC
  5
16B
  8
0
 10
401.950207
 20
974.81518
 30
0.0
 40
16.0
 50
161.70466
 51
180.0
  0
ARC
  5
16C
  8
0
 10
731.655903
 20
865.805197
 30
0.0
 40
363.2593
 50
151.891039
 51
161.70466
  0
ARC
  5
16D
  8
0
 10
425.651296
 20
1030.0
 30
0.0
 40
16.0
 50
90.0
 51
154.235548
  0
LINE
  5
16E
  8
0
 10
577.666861
 20
133.443024
 30
0.0
 11
577.666861
 21
271.292919
 31
0.0
  0
LINE
  5
16F
  8
0
 10
727.075762
 20
202.855597
 30
0.0
 11
779.557431
 21
167.145048
 31
0.0
  0
LINE
  5
170
  8
0
 10
1029.845211
 20
149.961162
 30
0.0
 11
800.422159
 21
270.840581
 31
0.0
  0
LINE
  5
171
  8
0
 10
1029.845211
 20
138.53071
 30
0.0
 11
797.087216
 21
260.519916
 31
0.0
  0
LINE
  5
172
  8
0
 10
1029.845211
 20
160.37602
 30
0.0
 11
817.87259
 21
275.448361
 31
0.0
  0
LINE
  5
173
  8
0
 10
1041.790392
 20
167.831407
 30
0.0
 11
821.207532
 21
285.769025
 31
0.0
  0
LINE
  5
174
  8
0
 10
816.474819
 20
202.855597
 30
0.0
 11
998.546769
 21
153.925132
 31
0.0
  0
LINE
  5
175
  8
0
 10
1072.200478
 20
180.136175
 30
0.0
 11
1072.200478
 21
22.719422
 31
0.0
  0
LINE
  5
176
  8
0
 10
816.474819
 20
202.855597
 30
0.0
 11
816.474819
 21
0.0
 31
0.0
  0
LINE
  5
177
  8
0
 10
779.557431
 20
202.855597
 30
0.0
 11
779.557431
 21
0.0
 31
0.0
  0
LINE
  5
178
  8
0
 10
727.075762
 20
202.855597
 30
0.0
 11
727.075762
 21
0.0
 31
0.0
  0
LINE
  5
179
  8
0
 10
816.474819
 20
0.0
 30
0.0
 11
1015.311581
 21
53.435882
 31
0.0
  0
LINE
  5
17A
  8
0
 10
727.075762
 20
0.0
 30
0.0
 11
779.557431
 21
35.710549
 31
0.0
  0
LINE
  5
17B
  8
0
 10
579.627454
 20
143.668057
 30
0.0
 11
658.527642
 21
143.668057
 31
0.0
  0
LINE
  5
17C
  8
0
 62
     8
 10
727.075762
 20
151.950039
 30
0.0
 11
579.627454
 21
151.950039
 31
0.0
  0
LINE
  5
17D
  8
0
 10
557.082183
 20
59.18754
 30
0.0
 11
658.527642
 21
59.18754
 31
0.0
  0
LINE
  5
17E
  8
0
 10
556.507183
 20
59.76254
 30
0.0
 11
556.507183
 21
132.868024
 31
0.0
  0
LINE
  5
17F
  8
0
 10
557.082183
 20
59.18754
 30
0.0
 11
556.507183
 21
59.76254
 31
0.0
  0
LINE
  5
180
  8
0
 62
     8
 10
727.075762
 20
126.688919
 30
0.0
 11
659.102642
 21
126.688919
 31
0.0
  0
LINE
  5
181
  8
0
 62
     8
 10
727.075762
 20
101.427799
 30
0.0
 11
659.102642
 21
101.427799
 31
0.0
  0
LINE
  5
182
  8
0
 62
     8
 10
727.075762
 20
76.166678
 30
0.0
 11
659.102642
 21
76.166678
 31
0.0
  0
LINE
  5
183
  8
0
 10
659.102642
 20
59.76254
 30
0.0
 11
659.102642
 21
143.093057
 31
0.0
  0
LINE
  5
184
  8
0
 10
659.102642
 20
59.76254
 30
0.0
 11
658.527642
 21
59.18754
 31
0.0
  0
LINE
  5
185
  8
0
 10
658.527642
 20
143.668057
 30
0.0
 11
659.102642
 21
143.093057
 31
0.0
  0
LINE
  5
186
  8
0
 10
816.474819
 20
0.0
 30
0.0
 11
779.557431
 21
0.0
 31
0.0
  0
LINE
  5
187
  8
0
 10
1029.845211
 20
126.299747
 30
0.0
 11
1051.536596
 21
126.299747
 31
0.0
  0
LINE
  5
188
  8
0
 10
1029.845211
 20
167.256407
 30
0.0
 11
1030.420211
 21
167.831407
 31
0.0
  0
LINE
  5
189
  8
0
 10
1072.200478
 20
22.719422
 30
0.0
 11
1015.311581
 21
22.719422
 31
0.0
  0
LINE
  5
18A
  8
0
 10
1015.311581
 20
145.679207
 30
0.0
 11
1015.311581
 21
22.719422
 31
0.0
  0
LINE
  5
18B
  8
0
 10
1015.311581
 20
167.751231
 30
0.0
 11
1015.311581
 21
157.143268
 31
0.0
  0
LINE
  5
18C
  8
0
 10
1029.845211
 20
167.256407
 30
0.0
 11
1029.845211
 21
126.299747
 31
0.0
  0
LINE
  5
18D
  8
0
 10
1051.536596
 20
167.831407
 30
0.0
 11
1030.420211
 21
167.831407
 31
0.0
  0
LINE
  5
18E
  8
0
 10
1051.536596
 20
126.299747
 30
0.0
 11
1051.536596
 21
167.831407
 31
0.0
  0
LINE
  5
18F
  8
0
 10
1320.000007
 20
701.861419
 30
0.0
 11
1370.572467
 21
701.861419
 31
0.0
  0
LINE
  5
190
  8
0
 10
1320.000007
 20
374.138581
 30
0.0
 11
1370.572467
 21
374.138581
 31
0.0
  0
LINE
  5
191
  8
0
 10
925.049209
 20
408.979648
 30
0.0
 11
966.220507
 21
408.979648
 31
0.0
  0
LINE
  5
192
  8
0
 10
925.049209
 20
380.916245
 30
0.0
 11
966.220507
 21
380.916245
 31
0.0
  0
LINE
  5
193
  8
0
 10
925.049209
 20
380.916245
 30
0.0
 11
966.220507
 21
380.916245
 31
0.0
  0
LINE
  5
194
  8
0
 10
604.27849
 20
599.742474
 30
0.0
 11
604.27849
 21
625.633201
 31
0.0
  0
LINE
  5
195
  8
0
 10
748.148877
 20
355.122947
 30
0.0
 11
656.741379
 21
355.122947
 31
0.0
  0
LINE
  5
196
  8
0
 10
748.148877
 20
364.180885
 30
0.0
 11
661.270348
 21
364.180885
 31
0.0
  0
LINE
  5
197
  8
0
 62
     1
 10
577.666861
 20
251.835017
 30
0.0
 11
731.648367
 21
251.835017
 31
0.0
  0
LINE
  5
198
  8
0
 10
727.075762
 20
202.855597
 30
0.0
 11
579.627454
 21
202.855597
 31
0.0
  0
LINE
  5
199
  8
0
 62
     8
 10
727.075762
 20
177.211159
 30
0.0
 11
579.627454
 21
177.211159
 31
0.0
  0
LINE
  5
19A
  8
0
 10
579.610187
 20
271.292919
 30
0.0
 11
579.610187
 21
283.935
 31
0.0
  0
LINE
  5
19B
  8
0
 10
579.610187
 20
331.126525
 30
0.0
 11
579.610187
 21
343.768606
 31
0.0
  0
LINE
  5
19C
  8
0
 10
731.648367
 20
355.122947
 30
0.0
 11
731.648367
 21
199.74422
 31
0.0
  0
LINE
  5
19D
  8
0
 10
650.896353
 20
308.363732
 30
0.0
 11
651.333827
 21
303.556581
 31
0.0
  0
ARC
  5
19E
  8
0
 10
656.741379
 20
359.651916
 30
0.0
 40
4.528969
 50
180.0
 51
0.0
  0
LINE
  5
19F
  8
0
 10
652.21241
 20
359.651916
 30
0.0
 11
652.21241
 21
380.916245
 31
0.0
  0
LINE
  5
1A0
  8
0
 10
661.270348
 20
359.651916
 30
0.0
 11
661.270348
 21
380.916245
 31
0.0
  0
LINE
  5
1A1
  8
0
 10
731.648367
 20
380.916245
 30
0.0
 11
731.648367
 21
364.180885
 31
0.0
  0
LINE
  5
1A2
  8
0
 10
604.27849
 20
450.366799
 30
0.0
 11
604.27849
 21
476.257526
 31
0.0
  0
LINE
  5
1A3
  8
0
 10
925.049209
 20
358.227371
 30
0.0
 11
925.049209
 21
469.733138
 31
0.0
  0
LINE
  5
1A4
  8
0
 10
889.932533
 20
358.227371
 30
0.0
 11
889.932533
 21
469.733138
 31
0.0
  0
ARC
  5
1A5
  8
0
 10
805.677311
 20
286.333387
 30
0.0
 40
16.359819
 50
180.0
 51
251.593814
  0
ARC
  5
1A6
  8
0
 10
805.677311
 20
286.333387
 30
0.0
 40
27.205239
 50
180.0
 51
251.593814
  0
ARC
  5
1A7
  8
0
 10
826.462684
 20
301.261832
 30
0.0
 40
27.205239
 50
180.0
 51
251.593814
  0
LINE
  5
1A8
  8
0
 10
816.474819
 20
202.855597
 30
0.0
 11
779.557431
 21
202.855597
 31
0.0
  0
LINE
  5
1A9
  8
0
 10
778.472072
 20
380.916245
 30
0.0
 11
778.472072
 21
286.333387
 31
0.0
  0
ARC
  5
1AA
  8
0
 10
748.148877
 20
359.651916
 30
0.0
 40
4.528969
 50
270.0
 51
90.0
  0
LINE
  5
1AB
  8
0
 10
799.257445
 20
380.916245
 30
0.0
 11
799.257445
 21
301.261832
 31
0.0
  0
LINE
  5
1AC
  8
0
 10
810.102865
 20
380.916245
 30
0.0
 11
810.102865
 21
301.261832
 31
0.0
  0
LINE
  5
1AD
  8
0
 10
789.317492
 20
380.916245
 30
0.0
 11
789.317492
 21
286.333387
 31
0.0
  0
ARC
  5
1AE
  8
0
 10
826.462684
 20
301.261832
 30
0.0
 40
16.359819
 50
180.0
 51
251.593814
  0
LINE
  5
1AF
  8
0
 10
889.932533
 20
358.227371
 30
0.0
 11
925.049209
 21
358.227371
 31
0.0
  0
LINE
  5
1B0
  8
0
 10
623.475925
 20
731.038915
 30
0.0
 11
623.475925
 21
937.735675
 31
0.0
  0
LINE
  5
1B1
  8
0
 62
     8
 10
588.009497
 20
722.609561
 30
0.0
 11
588.009497
 21
934.66503
 31
0.0
  0
LINE
  5
1B2
  8
0
 62
     8
 10
551.619672
 20
722.609561
 30
0.0
 11
551.619672
 21
934.66503
 31
0.0
  0
LINE
  5
1B3
  8
0
 62
     8
 10
569.814585
 20
722.609561
 30
0.0
 11
569.814585
 21
934.66503
 31
0.0
  0
LINE
  5
1B4
  8
0
 62
     8
 10
603.365759
 20
706.271478
 30
0.0
 11
603.365759
 21
950.003112
 31
0.0
  0
LINE
  5
1B5
  8
0
 10
623.475925
 20
731.038915
 30
0.0
 11
603.365759
 21
706.271478
 31
0.0
  0
POLYLINE
  5
1B6
  8
0
 66
     1
 10
0.0
 20
0.0
 30
0.0
 70
     1
  0
VERTEX
  5
222
  8
0
 10
690.303623
 20
756.345734
 30
0.0
  0
VERTEX
  5
223
  8
0
 10
690.303623
 20
690.424085
 30
0.0
  0
VERTEX
  5
224
  8
0
 10
731.478766
 20
690.424085
 30
0.0
  0
VERTEX
  5
225
  8
0
 10
731.478766
 20
756.345734
 30
0.0
  0
SEQEND
  5
226
  8
0
  0
LINE
  5
1B7
  8
0
 10
647.85221
 20
706.271478
 30
0.0
 11
647.85221
 21
683.024014
 31
0.0
  0
LINE
  5
1B8
  8
0
 10
623.475925
 20
950.003112
 30
0.0
 11
623.475925
 21
974.81518
 31
0.0
  0
LINE
  5
1B9
  8
0
 10
623.475925
 20
937.735675
 30
0.0
 11
603.365759
 21
950.003112
 31
0.0
  0
ARC
  5
1BA
  8
0
 10
583.774836
 20
1030.0
 30
0.0
 40
16.0
 50
25.764452
 51
90.0
  0
ARC
  5
1BB
  8
0
 10
277.770229
 20
865.805197
 30
0.0
 40
363.2593
 50
18.29534
 51
28.108961
  0
ARC
  5
1BC
  8
0
 10
607.475925
 20
974.81518
 30
0.0
 40
16.0
 50
0.0
 51
18.29534
  0
POLYLINE
  5
1BD
  8
0
 66
     1
 10
0.0
 20
0.0
 30
0.0
 70
     1
  0
VERTEX
  5
227
  8
0
 10
742.512009
 20
756.345734
 30
0.0
  0
VERTEX
  5
228
  8
0
 10
742.512009
 20
690.424085
 30
0.0
  0
VERTEX
  5
229
  8
0
 10
783.687152
 20
690.424085
 30
0.0
  0
VERTEX
  5
22A
  8
0
 10
783.687152
 20
756.345734
 30
0.0
  0
SEQEND
  5
22B
  8
0
  0
LINE
  5
1BE
  8
0
 10
1261.046046
 20
716.702212
 30
0.0
 11
1261.046046
 21
544.316788
 31
0.0
  0
LINE
  5
1BF
  8
0
 10
1251.954415
 20
544.316788
 30
0.0
 11
1251.954415
 21
716.702212
 31
0.0
  0
LINE
  5
1C0
  8
0
 62
     8
 10
1276.969408
 20
544.316788
 30
0.0
 11
1276.969408
 21
728.148632
 31
0.0
  0
LINE
  5
1C1
  8
0
 10
1320.000007
 20
347.851369
 30
0.0
 11
1320.000007
 21
728.148632
 31
0.0
  0
LINE
  5
1C2
  8
0
 10
966.220507
 20
323.557347
 30
0.0
 11
966.220507
 21
752.442654
 31
0.0
  0
LINE
  5
1C3
  8
0
 10
991.31341
 20
323.557347
 30
0.0
 11
991.31341
 21
752.442654
 31
0.0
  0
LINE
  5
1C4
  8
0
 62
     8
 10
978.766959
 20
752.442654
 30
0.0
 11
978.766959
 21
323.557347
 31
0.0
  0
LINE
  5
1C5
  8
0
 10
991.31341
 20
408.979648
 30
0.0
 11
1253.583919
 21
408.979648
 31
0.0
  0
LINE
  5
1C6
  8
0
 10
991.31341
 20
380.916245
 30
0.0
 11
1253.583919
 21
380.916245
 31
0.0
  0
LINE
  5
1C7
  8
0
 10
1015.311581
 20
180.136175
 30
0.0
 11
1072.200478
 21
180.136175
 31
0.0
  0
LINE
  5
1C8
  8
0
 10
991.31341
 20
323.557347
 30
0.0
 11
978.766959
 21
323.557347
 31
0.0
  0
LINE
  5
1C9
  8
0
 10
966.220507
 20
323.557347
 30
0.0
 11
978.766959
 21
323.557347
 31
0.0
  0
LINE
  5
1CA
  8
0
 62
     8
 10
1276.969408
 20
347.851369
 30
0.0
 11
1276.969408
 21
531.683213
 31
0.0
  0
LINE
  5
1CB
  8
0
 10
1251.954415
 20
359.297789
 30
0.0
 11
1251.954415
 21
531.683213
 31
0.0
  0
LINE
  5
1CC
  8
0
 10
1261.046046
 20
531.683213
 30
0.0
 11
1261.046046
 21
359.297789
 31
0.0
  0
POLYLINE
  5
1CD
  8
0
 66
     1
 10
0.0
 20
0.0
 30
0.0
 70
     1
  0
VERTEX
  5
22C
  8
0
 10
1176.992766
 20
342.290248
 30
0.0
  0
VERTEX
  5
22D
  8
0
 10
1176.992766
 20
321.874343
 30
0.0
 42
0.414214
  0
VERTEX
  5
22E
  8
0
 10
1179.992766
 20
318.874343
 30
0.0
  0
VERTEX
  5
22F
  8
0
 10
1228.927474
 20
318.874343
 30
0.0
 42
0.414214
  0
VERTEX
  5
230
  8
0
 10
1231.927474
 20
321.874343
 30
0.0
  0
VERTEX
  5
231
  8
0
 10
1231.927474
 20
342.290248
 30
0.0
 42
0.414214
  0
VERTEX
  5
232
  8
0
 10
1228.927474
 20
345.290248
 30
0.0
  0
VERTEX
  5
233
  8
0
 10
1179.992766
 20
345.290248
 30
0.0
 42
0.414214
  0
SEQEND
  5
234
  8
0
  0
LINE
  5
1CE
  8
0
 10
1198.327638
 20
345.290248
 30
0.0
 11
1198.327638
 21
380.916245
 31
0.0
  0
LINE
  5
1CF
  8
0
 10
1211.999315
 20
345.290248
 30
0.0
 11
1211.999315
 21
380.916245
 31
0.0
  0
LINE
  5
1D0
  8
0
 10
1276.969408
 20
347.851369
 30
0.0
 11
1320.000007
 21
347.851369
 31
0.0
  0
LINE
  5
1D1
  8
0
 10
1251.954415
 20
359.297789
 30
0.0
 11
1261.046046
 21
359.297789
 31
0.0
  0
LINE
  5
1D2
  8
0
 10
1276.969408
 20
359.297789
 30
0.0
 11
1261.046046
 21
359.297789
 31
0.0
  0
LINE
  5
1D3
  8
0
 10
1243.806895
 20
544.316788
 30
0.0
 11
1277.896188
 21
544.316788
 31
0.0
  0
LINE
  5
1D4
  8
0
 10
1243.806895
 20
531.683213
 30
0.0
 11
1277.896188
 21
531.683213
 31
0.0
  0
LINE
  5
1D5
  8
0
 10
1243.806895
 20
544.316788
 30
0.0
 11
1243.806895
 21
531.683213
 31
0.0
  0
LINE
  5
1D6
  8
0
 10
1277.896188
 20
544.316788
 30
0.0
 11
1277.896188
 21
531.683213
 31
0.0
  0
LINE
  5
1D7
  8
0
 10
991.31341
 20
683.024014
 30
0.0
 11
1253.583919
 21
683.024014
 31
0.0
  0
LINE
  5
1D8
  8
0
 10
991.31341
 20
752.442654
 30
0.0
 11
978.766959
 21
752.442654
 31
0.0
  0
LINE
  5
1D9
  8
0
 10
966.220507
 20
752.442654
 30
0.0
 11
978.766959
 21
752.442654
 31
0.0
  0
LINE
  5
1DA
  8
0
 10
1251.954415
 20
716.702212
 30
0.0
 11
1261.046046
 21
716.702212
 31
0.0
  0
LINE
  5
1DB
  8
0
 10
1276.969408
 20
716.702212
 30
0.0
 11
1261.046046
 21
716.702212
 31
0.0
  0
LINE
  5
1DC
  8
0
 10
1276.969408
 20
728.148632
 30
0.0
 11
1320.000007
 21
728.148632
 31
0.0
  0
LINE
  5
1DD
  8
0
 10
1370.572467
 20
370.0
 30
0.0
 11
1757.064468
 21
370.0
 31
0.0
  0
LINE
  5
1DE
  8
0
 10
1370.572467
 20
706.0
 30
0.0
 11
1757.064468
 21
706.0
 31
0.0
  0
LINE
  5
1DF
  8
0
 62
     8
 10
1355.656469
 20
374.138581
 30
0.0
 11
1355.656469
 21
701.861419
 31
0.0
  0
LINE
  5
1E0
  8
0
 62
     8
 10
1370.572467
 20
370.0
 30
0.0
 11
1370.572467
 21
706.0
 31
0.0
  0
LINE
  5
1E1
  8
0
 10
1796.000007
 20
385.686532
 30
0.0
 11
1796.000007
 21
690.313468
 31
0.0
  0
LINE
  5
1E2
  8
0
 10
1757.064468
 20
706.0
 30
0.0
 11
1757.064468
 21
370.0
 31
0.0
  0
LINE
  5
1E3
  8
0
 62
     8
 10
1747.397662
 20
706.0
 30
0.0
 11
1747.397662
 21
370.0
 31
0.0
  0
LINE
  5
1E4
  8
0
 10
1796.000007
 20
385.686532
 30
0.0
 11
1757.064468
 21
370.0
 31
0.0
  0
LINE
  5
1E5
  8
0
 10
1796.000007
 20
690.313468
 30
0.0
 11
1757.064468
 21
706.0
 31
0.0
  0
ENDBLK
  5
1E7
  8
0
 62
     8
  0
BLOCK
  8
0
 62
     8
  2
A$C0CB05B9C
 70
     0
 10
0.0
 20
0.0
 30
0.0
  3
A$C0CB05B9C
  1

  0
LINE
  5
1F
  8
0
 10
925.098747
 20
688.567223
 30
0.0
 11
924.408747
 21
689.257223
 31
0.0
  0
LINE
  5
20
  8
0
 10
925.098747
 20
542.021991
 30
0.0
 11
925.098747
 21
688.567223
 31
0.0
  0
LINE
  5
21
  8
0
 10
924.408747
 20
689.257223
 30
0.0
 11
793.116575
 21
689.257223
 31
0.0
  0
LINE
  5
22
  8
0
 10
768.331546
 20
733.669665
 30
0.0
 11
247.668479
 21
733.669665
 31
0.0
  0
LINE
  5
23
  8
0
 62
     1
 10
635.798846
 20
704.141705
 30
0.0
 11
252.411409
 21
704.141705
 31
0.0
  0
LINE
  5
24
  8
0
 62
     1
 10
252.411409
 20
420.431615
 30
0.0
 11
252.411409
 21
704.141705
 31
0.0
  0
LINE
  5
25
  8
0
 10
222.883449
 20
339.097986
 30
0.0
 11
222.883449
 21
708.884635
 31
0.0
  0
ARC
  5
26
  8
0
 10
247.668479
 20
708.884635
 30
0.0
 40
24.78503
 50
90.0
 51
180.0
  0
LINE
  5
27
  8
0
 62
     1
 10
635.798846
 20
420.431615
 30
0.0
 11
635.798846
 21
704.141705
 31
0.0
  0
LINE
  5
28
  8
0
 10
793.116575
 20
339.097986
 30
0.0
 11
793.116575
 21
708.884635
 31
0.0
  0
ARC
  5
29
  8
0
 10
768.331546
 20
708.884635
 30
0.0
 40
24.78503
 50
0.0
 51
90.0
  0
LINE
  5
2A
  8
0
 10
768.331546
 20
314.312956
 30
0.0
 11
247.668479
 21
314.312956
 31
0.0
  0
LINE
  5
2B
  8
0
 62
     1
 10
793.116575
 20
391.607414
 30
0.0
 11
222.883449
 21
391.607414
 31
0.0
  0
LINE
  5
2C
  8
0
 10
653.445251
 20
-0.000002
 30
0.0
 11
913.185857
 21
-0.000002
 31
0.0
  0
LINE
  5
2D
  8
0
 62
     1
 10
635.798846
 20
420.431615
 30
0.0
 11
252.411409
 21
420.431615
 31
0.0
  0
LINE
  5
2E
  8
0
 10
339.728534
 20
151.840137
 30
0.0
 11
362.975998
 21
151.840137
 31
0.0
  0
LINE
  5
2F
  8
0
 10
339.728534
 20
151.840137
 30
0.0
 11
339.728534
 21
314.312956
 31
0.0
  0
LINE
  5
30
  8
0
 62
     8
 10
222.913105
 20
337.885888
 30
0.0
 11
111.334983
 21
337.885888
 31
0.0
  0
LINE
  5
31
  8
0
 62
     8
 10
232.25207
 20
319.690975
 30
0.0
 11
111.334983
 21
319.690975
 31
0.0
  0
LINE
  5
32
  8
0
 62
     8
 10
222.883449
 20
356.0808
 30
0.0
 11
111.334983
 21
356.0808
 31
0.0
  0
LINE
  5
33
  8
0
 62
     8
 10
222.883449
 20
374.275712
 30
0.0
 11
111.334983
 21
374.275712
 31
0.0
  0
LINE
  5
34
  8
0
 10
222.883449
 20
409.74214
 30
0.0
 11
108.264337
 21
409.74214
 31
0.0
  0
LINE
  5
35
  8
0
 62
     8
 10
223.231595
 20
389.631974
 30
0.0
 11
95.9969
 21
389.631974
 31
0.0
  0
LINE
  5
36
  8
0
 10
314.961097
 20
172.216423
 30
0.0
 11
108.264337
 21
172.216423
 31
0.0
  0
LINE
  5
37
  8
0
 62
     8
 10
323.390452
 20
283.30115
 30
0.0
 11
111.334983
 21
283.30115
 31
0.0
  0
LINE
  5
38
  8
0
 62
     8
 10
323.390452
 20
301.496063
 30
0.0
 11
111.334983
 21
301.496063
 31
0.0
  0
LINE
  5
39
  8
0
 62
     8
 10
323.390452
 20
228.716413
 30
0.0
 11
111.334983
 21
228.716413
 31
0.0
  0
LINE
  5
3A
  8
0
 62
     8
 10
323.390452
 20
265.106238
 30
0.0
 11
111.334983
 21
265.106238
 31
0.0
  0
LINE
  5
3B
  8
0
 62
     8
 10
323.390452
 20
246.911326
 30
0.0
 11
111.334983
 21
246.911326
 31
0.0
  0
LINE
  5
3C
  8
0
 62
     8
 10
339.728534
 20
192.326588
 30
0.0
 11
95.9969
 21
192.326588
 31
0.0
  0
LINE
  5
3D
  8
0
 62
     8
 10
323.390452
 20
210.521501
 30
0.0
 11
111.334983
 21
210.521501
 31
0.0
  0
ARC
  5
3E
  8
0
 10
16.000012
 20
370.041051
 30
0.0
 40
16.0
 50
115.764452
 51
180.0
  0
LINE
  5
3F
  8
0
 62
     8
 10
68.641159
 20
184.27585
 30
0.0
 11
68.641159
 21
397.682713
 31
0.0
  0
LINE
  5
40
  8
0
 10
95.9969
 20
172.216423
 30
0.0
 11
95.9969
 21
409.74214
 31
0.0
  0
LINE
  5
41
  8
0
 10
95.9969
 20
192.326588
 30
0.0
 11
95.9969
 21
389.631974
 31
0.0
  0
ARC
  5
42
  8
0
 10
180.194815
 20
517.922118
 30
0.0
 40
363.2593
 50
241.891039
 51
251.70466
  0
LINE
  5
43
  8
0
 10
0.000012
 20
211.917512
 30
0.0
 11
0.000012
 21
370.041051
 31
0.0
  0
ARC
  5
44
  8
0
 10
16.000012
 20
211.917512
 30
0.0
 40
16.0
 50
180.0
 51
244.235548
  0
LINE
  5
45
  8
0
 10
95.9969
 20
172.216423
 30
0.0
 11
71.184832
 21
172.216423
 31
0.0
  0
ARC
  5
46
  8
0
 10
71.184832
 20
188.216423
 30
0.0
 40
16.0
 50
251.70466
 51
270.0
  0
LINE
  5
47
  8
0
 10
108.264337
 20
172.216423
 30
0.0
 11
95.9969
 21
192.326588
 31
0.0
  0
ARC
  5
48
  8
0
 10
180.194815
 20
64.036445
 30
0.0
 40
363.2593
 50
108.29534
 51
118.108961
  0
LINE
  5
49
  8
0
 10
95.9969
 20
409.74214
 30
0.0
 11
71.184832
 21
409.74214
 31
0.0
  0
ARC
  5
4A
  8
0
 10
71.184832
 20
393.74214
 30
0.0
 40
16.0
 50
90.0
 51
108.29534
  0
LINE
  5
4B
  8
0
 10
108.264337
 20
409.74214
 30
0.0
 11
95.9969
 21
389.631974
 31
0.0
  0
ARC
  5
4C
  8
0
 10
247.668479
 20
339.097986
 30
0.0
 40
24.78503
 50
180.0
 51
270.0
  0
LINE
  5
4D
  8
0
 10
314.961097
 20
172.216423
 30
0.0
 11
339.728534
 21
192.326588
 31
0.0
  0
LINE
  5
4E
  8
0
 10
653.445251
 20
-0.000002
 30
0.0
 11
653.445251
 21
314.312956
 31
0.0
  0
LINE
  5
4F
  8
0
 10
362.975998
 20
150.040634
 30
0.0
 11
362.975998
 21
314.312956
 31
0.0
  0
ARC
  5
50
  8
0
 10
508.000012
 20
156.312189
 30
0.0
 40
142.538604
 50
180.0
 51
0.0
  0
LINE
  5
51
  8
0
 10
709.816516
 20
443.242703
 30
0.0
 11
709.816516
 21
491.585067
 31
0.0
  0
LINE
  5
52
  8
0
 10
662.291008
 20
443.242703
 30
0.0
 11
662.291008
 21
491.585067
 31
0.0
  0
LINE
  5
53
  8
0
 10
709.816516
 20
443.242703
 30
0.0
 11
662.291008
 21
443.242703
 31
0.0
  0
LINE
  5
54
  8
0
 10
709.816516
 20
491.585067
 30
0.0
 11
662.291008
 21
491.585067
 31
0.0
  0
LINE
  5
55
  8
0
 10
913.185857
 20
75.543671
 30
0.0
 11
790.763259
 21
328.556831
 31
0.0
  0
LINE
  5
56
  8
0
 10
913.185857
 20
-0.000002
 30
0.0
 11
913.185857
 21
75.543671
 31
0.0
  0
LINE
  5
57
  8
0
 10
976.071524
 20
169.265923
 30
0.0
 11
867.837537
 21
169.265923
 31
0.0
  0
LINE
  5
58
  8
0
 10
965.870753
 20
451.585649
 30
0.0
 11
843.57313
 21
451.585649
 31
0.0
  0
LINE
  5
59
  8
0
 10
976.071524
 20
412.692639
 30
0.0
 11
804.842727
 21
412.692639
 31
0.0
  0
LINE
  5
5A
  8
0
 10
804.152727
 20
412.002639
 30
0.0
 11
804.152727
 21
300.884556
 31
0.0
  0
ARC
  5
5B
  8
0
 10
768.331546
 20
339.097986
 30
0.0
 40
24.78503
 50
270.0
 51
0.0
  0
LINE
  5
5C
  8
0
 10
872.501784
 20
169.265923
 30
0.0
 11
871.811784
 21
169.955923
 31
0.0
  0
LINE
  5
5D
  8
0
 10
924.408747
 20
541.331991
 30
0.0
 11
793.116575
 21
541.331991
 31
0.0
  0
LINE
  5
5E
  8
0
 10
804.842727
 20
412.692639
 30
0.0
 11
804.152727
 21
412.002639
 31
0.0
  0
LINE
  5
5F
  8
0
 10
843.57313
 20
412.692639
 30
0.0
 11
843.57313
 21
451.585649
 31
0.0
  0
LINE
  5
60
  8
0
 10
871.811784
 20
412.002639
 30
0.0
 11
872.501784
 21
412.692639
 31
0.0
  0
LINE
  5
61
  8
0
 10
925.098747
 20
542.021991
 30
0.0
 11
924.408747
 21
541.331991
 31
0.0
  0
LINE
  5
62
  8
0
 10
976.761524
 20
412.002639
 30
0.0
 11
976.761524
 21
169.955923
 31
0.0
  0
ARC
  5
63
  8
0
 10
924.286654
 20
290.979281
 30
0.0
 40
121.713358
 50
295.539602
 51
64.460398
  0
ARC
  5
64
  8
0
 10
924.286654
 20
290.979281
 30
0.0
 40
94.428888
 50
303.75948
 51
56.24052
  0
LINE
  5
65
  8
0
 10
976.761524
 20
169.955923
 30
0.0
 11
976.071524
 21
169.265923
 31
0.0
  0
LINE
  5
66
  8
0
 10
965.870753
 20
412.692639
 30
0.0
 11
965.870753
 21
451.585649
 31
0.0
  0
LINE
  5
67
  8
0
 10
976.071524
 20
412.692639
 30
0.0
 11
976.761524
 21
412.002639
 31
0.0
  0
ENDBLK
  5
69
  8
0
 62
     8
  0
ENDSEC
  0
SECTION
  2
ENTITIES
  0
INSERT
  5
1D
  8
0
 62
     8
  2
A$C0CB05B9C
 10
2403.009769
 20
1578.384998
 30
0.0
  0
INSERT
  5
6A
  8
0
 62
     8
  2
A$C03BD4E36
 10
249.310569
 20
1578.384998
 30
0.0
  0
LINE
  5
106
  8
CONTORNO_PAGINA
 62
   150
 10
0.0
 20
2586.448951
 30
0.0
 11
3709.946276
 21
2586.448951
 31
0.0
  0
LINE
  5
108
  8
CONTORNO_PAGINA
 62
     5
 10
30.0
 20
2556.448951
 30
0.0
 11
3679.946276
 21
2556.448951
 31
0.0
  0
LINE
  5
109
  8
CONTORNO_PAGINA
 62
     5
 10
30.0
 20
30.0
 30
0.0
 11
30.0
 21
2556.448951
 31
0.0
  0
LINE
  5
10A
  8
CONTORNO_PAGINA
 62
   150
 10
0.0
 20
0.0
 30
0.0
 11
0.0
 21
2586.448951
 31
0.0
  0
LINE
  5
10B
  8
CONTORNO_PAGINA
 62
   150
 10
3709.946276
 20
0.0
 30
0.0
 11
3709.946276
 21
2586.448951
 31
0.0
  0
LINE
  5
10C
  8
CONTORNO_PAGINA
 62
     5
 10
3679.946276
 20
30.0
 30
0.0
 11
3679.946276
 21
2556.448951
 31
0.0
  0
INSERT
  5
10D
  8
0
 62
     8
  2
A$C3B0F6E25
 10
249.310569
 20
220.222298
 30
0.0
  0
LINE
  5
1E8
  8
CONTORNO_PAGINA
 62
   150
 10
0.0
 20
0.0
 30
0.0
 11
3709.946276
 21
0.0
 31
0.0
  0
LINE
  5
1E9
  8
CONTORNO_PAGINA
 62
     5
 10
30.0
 20
30.0
 30
0.0
 11
3679.946276
 21
30.0
 31
0.0
  0
LINE
  5
1EA
  8
LAYER1
 62
   150
 10
1854.973138
 20
142.021627
 30
0.0
 11
3679.946276
 21
142.021627
 31
0.0
  0
LINE
  5
1EC
  8
LAYER1
 62
     4
 10
1854.973138
 20
197.314356
 30
0.0
 11
3679.946276
 21
197.314356
 31
0.0
  0
TEXT
  8
0
  40
30
  5
236
  62
5
  72
0
  71
0
 10
1939.30
 20
26.5328
 30
0.000000
  1
3489057
  0
TEXT
  8
0
  40
25
  5
237
  62
5
  72
0
  71
0
 10
1871.99
 20
152.107
 30
0.000000
  1
Codice n.
  7
SIMPLEX_INCLINATO
  0
LINE
  5
1F0
  8
LAYER1
 62
     4
 10
1854.973138
 20
197.314356
 30
0.0
 11
1854.973138
 21
30.0
 31
0.0
  0
TEXT
  8
0
  40
30
  5
238
  62
5
  72
0
  71
0
 10
2644.80
 20
21.6084
 30
0.000000
  1
GI/EMME 4500 t.c.
  0
TEXT
  8
0
  40
25
  5
239
  62
5
  72
0
  71
0
 10
2430.13
 20
152.107
 30
0.000000
  1
Denominazione commerciale
  7
SIMPLEX_INCLINATO
  0
LINE
  5
1F3
  8
LAYER1
 62
     4
 10
2413.106065
 20
30.0
 30
0.0
 11
2413.106065
 21
197.314356
 31
0.0
  0
TEXT
  8
0
  40
30
  5
23A
  62
5
  72
0
  71
0
 10
3538.68
 20
36.7195
 30
0.000000
  1
1:1
  0
TEXT
  8
0
  40
25
  5
23B
  62
5
  72
0
  71
0
 10
3412.16
 20
152.107
 30
0.000000
  1
scala
  7
SIMPLEX_INCLINATO
  0
LINE
  5
1F6
  8
LAYER1
 62
     4
 10
3395.136281
 20
30.0
 30
0.0
 11
3395.136281
 21
197.314356
 31
0.0
  0
ENDSEC
  0
EOF
