  0
SECTION
  2
HEADER
  9
$ACADVER
  1
AC1009
  9
$INSBASE
 10
0.0
 20
0.0
 30
0.0
  9
$EXTMIN
 10
-381.214714
 20
24.012355
 30
-0.001526
  9
$EXTMAX
 10
1614.7071
 20
2795.242056
 30
0.0
  9
$LIMMIN
 10
0.0
 20
0.0
  9
$LIMMAX
 10
12.0
 20
9.0
  9
$ORTHOMODE
 70
     0
  9
$REGENMODE
 70
     1
  9
$FILLMODE
 70
     1
  9
$QTEXTMODE
 70
     0
  9
$MIRRTEXT
 70
     1
  9
$DRAGMODE
 70
     2
  9
$LTSCALE
 40
4.0
  9
$OSMODE
 70
    39
  9
$ATTMODE
 70
     1
  9
$TEXTSIZE
 40
0.2
  9
$TRACEWID
 40
0.05
  9
$TEXTSTYLE
  7
STANDARD
  9
$CLAYER
  8
0
  9
$CELTYPE
  6
BYLAYER
  9
$CECOLOR
 62
   256
  9
$DIMSCALE
 40
1.0
  9
$DIMASZ
 40
0.18
  9
$DIMEXO
 40
0.0625
  9
$DIMDLI
 40
0.38
  9
$DIMRND
 40
0.0
  9
$DIMDLE
 40
0.0
  9
$DIMEXE
 40
0.18
  9
$DIMTP
 40
0.0
  9
$DIMTM
 40
0.0
  9
$DIMTXT
 40
0.18
  9
$DIMCEN
 40
0.09
  9
$DIMTSZ
 40
0.0
  9
$DIMTOL
 70
     0
  9
$DIMLIM
 70
     0
  9
$DIMTIH
 70
     1
  9
$DIMTOH
 70
     1
  9
$DIMSE1
 70
     0
  9
$DIMSE2
 70
     0
  9
$DIMTAD
 70
     0
  9
$DIMZIN
 70
     0
  9
$DIMBLK
  1

  9
$DIMASO
 70
     1
  9
$DIMSHO
 70
     1
  9
$DIMPOST
  1

  9
$DIMAPOST
  1

  9
$DIMALT
 70
     0
  9
$DIMALTD
 70
     2
  9
$DIMALTF
 40
25.4
  9
$DIMLFAC
 40
1.0
  9
$DIMTOFL
 70
     0
  9
$DIMTVP
 40
0.0
  9
$DIMTIX
 70
     0
  9
$DIMSOXD
 70
     0
  9
$DIMSAH
 70
     0
  9
$DIMBLK1
  1

  9
$DIMBLK2
  1

  9
$DIMSTYLE
  2
STANDARD
  9
$DIMCLRD
 70
     0
  9
$DIMCLRE
 70
     0
  9
$DIMCLRT
 70
     0
  9
$DIMTFAC
 40
1.0
  9
$DIMGAP
 40
0.09
  9
$LUNITS
 70
     2
  9
$LUPREC
 70
     4
  9
$SKETCHINC
 40
0.1
  9
$FILLETRAD
 40
0.5
  9
$AUNITS
 70
     0
  9
$AUPREC
 70
     0
  9
$MENU
  1
.
  9
$ELEVATION
 40
0.0
  9
$PELEVATION
 40
0.0
  9
$THICKNESS
 40
0.0
  9
$LIMCHECK
 70
     0
  9
$BLIPMODE
 70
     0
  9
$CHAMFERA
 40
0.5
  9
$CHAMFERB
 40
0.5
  9
$SKPOLY
 70
     1
  9
$TDCREATE
 40
2451209.439065
  9
$TDUPDATE
 40
2451221.923539
  9
$TDINDWG
 40
0.004283
  9
$TDUSRTIMER
 40
0.004283
  9
$USRTIMER
 70
     1
  9
$ANGBASE
 50
0.0
  9
$ANGDIR
 70
     0
  9
$PDMODE
 70
     0
  9
$PDSIZE
 40
0.0
  9
$PLINEWID
 40
0.0
  9
$COORDS
 70
     1
  9
$SPLFRAME
 70
     0
  9
$SPLINETYPE
 70
     6
  9
$SPLINESEGS
 70
     8
  9
$ATTDIA
 70
     0
  9
$ATTREQ
 70
     1
  9
$HANDLING
 70
     1
  9
$HANDSEED
  5
595
  9
$SURFTAB1
 70
     6
  9
$SURFTAB2
 70
     6
  9
$SURFTYPE
 70
     6
  9
$SURFU
 70
     6
  9
$SURFV
 70
     6
  9
$UCSNAME
  2

  9
$UCSORG
 10
0.0
 20
0.0
 30
0.0
  9
$UCSXDIR
 10
1.0
 20
0.0
 30
0.0
  9
$UCSYDIR
 10
0.0
 20
1.0
 30
0.0
  9
$PUCSNAME
  2

  9
$PUCSORG
 10
0.0
 20
0.0
 30
0.0
  9
$PUCSXDIR
 10
1.0
 20
0.0
 30
0.0
  9
$PUCSYDIR
 10
0.0
 20
1.0
 30
0.0
  9
$USERI1
 70
     0
  9
$USERI2
 70
     0
  9
$USERI3
 70
     0
  9
$USERI4
 70
     0
  9
$USERI5
 70
     0
  9
$USERR1
 40
0.0
  9
$USERR2
 40
0.0
  9
$USERR3
 40
0.0
  9
$USERR4
 40
0.0
  9
$USERR5
 40
0.0
  9
$WORLDVIEW
 70
     1
  9
$SHADEDGE
 70
     3
  9
$SHADEDIF
 70
    70
  9
$TILEMODE
 70
     1
  9
$MAXACTVP
 70
    48
  9
$PLIMCHECK
 70
     0
  9
$PEXTMIN
 10
1.000000E+020
 20
1.000000E+020
 30
1.000000E+020
  9
$PEXTMAX
 10
-1.000000E+020
 20
-1.000000E+020
 30
-1.000000E+020
  9
$PLIMMIN
 10
0.0
 20
0.0
  9
$PLIMMAX
 10
12.0
 20
9.0
  9
$UNITMODE
 70
     0
  9
$VISRETAIN
 70
     1
  9
$PLINEGEN
 70
     0
  9
$PSLTSCALE
 70
     1
  0
ENDSEC
  0
SECTION
  2
TABLES
  0
TABLE
  2
VPORT
 70
     9
  0
VPORT
  2
*ACTIVE
 70
     0
 10
0.0
 20
0.0
 11
1.0
 21
1.0
 12
616.746193
 22
1409.627206
 13
0.0
 23
0.0
 14
0.5
 24
0.5
 15
0.5
 25
0.5
 16
0.0
 26
0.0
 36
1.0
 17
0.0
 27
0.0
 37
0.0
 40
2812.798147
 41
1.756892
 42
50.0
 43
0.0
 44
0.0
 50
0.0
 51
0.0
 71
     0
 72
   100
 73
     1
 74
     1
 75
     0
 76
     0
 77
     0
 78
     0
  0
ENDTAB
  0
TABLE
  2
LTYPE
 70
     2
  0
LTYPE
  2
CONTINUOUS
 70
     0
  3
Solid line
 72
    65
 73
     0
 40
0.0
  0
LTYPE
  2
DASHED2
 70
     0
  3
Dashed (.5x) _ _ _ _ _ _ _ _ _ _ _ _ _ _ _ _ _
 72
    65
 73
     2
 40
9.525
 49
6.35
 49
-3.175
  0
ENDTAB
  0
TABLE
  2
LAYER
 70
     3
  0
LAYER
  2
0
 70
     0
 62
     7
  6
CONTINUOUS
  0
LAYER
  2
CONTORNO_PAGINA
 70
     0
 62
     7
  6
CONTINUOUS
  0
LAYER
  2
LAYER1
 70
     0
 62
     7
  6
CONTINUOUS
  0
ENDTAB
  0
TABLE
  2
STYLE
 70
     3
  0
STYLE
  2
STANDARD
 70
     0
 40
0.0
 41
1.0
 50
0.0
 71
     0
 42
0.2
  3
txt
  4

  0
STYLE
  2
SIMPLEX_INCLINATO
 70
     0
 40
2.0
 41
1.0
 50
15.0
 71
     0
 42
89.952478
  3
simplex.shx
  4

  0
ENDTAB
  0
TABLE
  2
VIEW
 70
     0
  0
ENDTAB
  0
TABLE
  2
UCS
 70
     0
  0
ENDTAB
  0
TABLE
  2
APPID
 70
     1
  0
APPID
  2
ACAD
 70
     0
  0
ENDTAB
  0
TABLE
  2
DIMSTYLE
 70
     1
  0
DIMSTYLE
  2
STANDARD
 70
     0
  3

  4

  5

  6

  7

 40
1.0
 41
0.18
 42
0.0625
 43
0.38
 44
0.18
 45
0.0
 46
0.0
 47
0.0
 48
0.0
140
0.18
141
0.09
142
0.0
143
25.4
144
1.0
145
0.0
146
1.0
147
0.09
 71
     0
 72
     0
 73
     1
 74
     1
 75
     0
 76
     0
 77
     0
 78
     0
170
     0
171
     2
172
     0
173
     0
174
     0
175
     0
176
     0
177
     0
178
     0
  0
ENDTAB
  0
ENDSEC
  0
SECTION
  2
BLOCKS
  0
BLOCK
  8
0
  2
$MODEL_SPACE
 70
     0
 10
0.0
 20
0.0
 30
0.0
  3
$MODEL_SPACE
  1

  0
ENDBLK
  5
1B
  8
0
  0
BLOCK
 67
     1
  8
0
  2
$PAPER_SPACE
 70
     0
 10
0.0
 20
0.0
 30
0.0
  3
$PAPER_SPACE
  1

  0
ENDBLK
  5
18
 67
     1
  8
0
  0
BLOCK
  8
0
  2
A$C6CA3203F
 70
     0
 10
0.0
 20
0.0
 30
0.0
  3
A$C6CA3203F
  1

  0
LINE
  5
1BE
  8
0
 62
     1
 10
488.607847
 20
610.909829
 30
0.0
 11
210.790863
 21
610.909829
 31
0.0
  0
LINE
  5
1BF
  8
0
 62
     1
 10
488.607847
 20
353.787319
 30
0.0
 11
210.790863
 21
353.787319
 31
0.0
  0
LINE
  5
1C0
  8
0
 10
584.646034
 20
276.88974
 30
0.0
 11
207.353957
 21
276.88974
 31
0.0
  0
LINE
  5
1C1
  8
0
 10
584.646034
 20
632.306902
 30
0.0
 11
207.353957
 21
632.306902
 31
0.0
  0
LINE
  5
1C2
  8
0
 62
     1
 10
602.606201
 20
332.900217
 30
0.0
 11
189.39379
 21
332.900217
 31
0.0
  0
ARC
  5
1C3
  8
0
 10
395.999996
 20
125.157283
 30
0.0
 40
108.725098
 50
180.0
 51
0.0
  0
LINE
  5
1C4
  8
0
 10
106.88296
 20
88.67119
 30
0.0
 11
106.88296
 21
352.054257
 31
0.0
  0
LINE
  5
1C5
  8
0
 10
-0.000004
 20
126.630409
 30
0.0
 11
-0.000004
 21
314.095039
 31
0.0
  0
LINE
  5
1C6
  8
0
 10
287.274898
 20
89.668718
 30
0.0
 11
287.274898
 21
276.88974
 31
0.0
  0
LINE
  5
1C7
  8
0
 10
265.306294
 20
89.668718
 30
0.0
 11
265.306294
 21
276.88974
 31
0.0
  0
ARC
  5
1C8
  8
0
 10
195.258414
 20
506.969207
 30
0.0
 40
427.531813
 50
242.824932
 51
258.070332
  0
LINE
  5
1C9
  8
0
 62
     8
 10
265.306294
 20
117.599502
 30
0.0
 11
106.88296
 21
117.599502
 31
0.0
  0
LINE
  5
1CA
  8
0
 10
265.306294
 20
96.651413
 30
0.0
 11
119.661539
 21
96.651413
 31
0.0
  0
LINE
  5
1CB
  8
0
 62
     8
 10
265.306294
 20
212.364671
 30
0.0
 11
122.860129
 21
212.364671
 31
0.0
  0
LINE
  5
1CC
  8
0
 62
     8
 10
265.306294
 20
231.317704
 30
0.0
 11
122.860129
 21
231.317704
 31
0.0
  0
LINE
  5
1CD
  8
0
 62
     8
 10
265.306294
 20
193.411637
 30
0.0
 11
122.860129
 21
193.411637
 31
0.0
  0
LINE
  5
1CE
  8
0
 62
     8
 10
265.306294
 20
136.552536
 30
0.0
 11
122.860129
 21
136.552536
 31
0.0
  0
LINE
  5
1CF
  8
0
 62
     8
 10
265.306294
 20
155.505569
 30
0.0
 11
122.860129
 21
155.505569
 31
0.0
  0
LINE
  5
1D0
  8
0
 62
     8
 10
265.306294
 20
174.458603
 30
0.0
 11
122.860129
 21
174.458603
 31
0.0
  0
LINE
  5
1D1
  8
0
 10
119.661539
 20
96.651413
 30
0.0
 11
106.88296
 21
117.599502
 31
0.0
  0
LINE
  5
1D2
  8
0
 10
287.274898
 20
89.668718
 30
0.0
 11
265.306294
 21
89.668718
 31
0.0
  0
ARC
  5
1D3
  8
0
 10
195.258414
 20
-66.24376
 30
0.0
 40
427.531813
 50
101.929668
 51
117.175068
  0
LINE
  5
1D4
  8
0
 10
189.39379
 20
294.849907
 30
0.0
 11
189.39379
 21
614.346735
 31
0.0
  0
LINE
  5
1D5
  8
0
 62
     1
 10
210.790863
 20
353.787319
 30
0.0
 11
210.790863
 21
610.909829
 31
0.0
  0
LINE
  5
1D6
  8
0
 62
     8
 10
265.306294
 20
250.270738
 30
0.0
 11
122.860129
 21
250.270738
 31
0.0
  0
LINE
  5
1D7
  8
0
 62
     8
 10
265.306294
 20
269.223772
 30
0.0
 11
122.860129
 21
269.223772
 31
0.0
  0
LINE
  5
1D8
  8
0
 62
     8
 10
190.679506
 20
288.176806
 30
0.0
 11
122.860129
 21
288.176806
 31
0.0
  0
LINE
  5
1D9
  8
0
 62
     8
 10
189.483315
 20
323.125945
 30
0.0
 11
106.88296
 21
323.125945
 31
0.0
  0
LINE
  5
1DA
  8
0
 62
     8
 10
189.39379
 20
307.129839
 30
0.0
 11
122.860129
 21
307.129839
 31
0.0
  0
LINE
  5
1DB
  8
0
 10
189.39379
 20
344.074035
 30
0.0
 11
119.661539
 21
344.074035
 31
0.0
  0
LINE
  5
1DC
  8
0
 10
119.661539
 20
344.074035
 30
0.0
 11
106.88296
 21
323.125945
 31
0.0
  0
ARC
  5
1DD
  8
0
 10
207.353957
 20
294.849907
 30
0.0
 40
17.960167
 50
180.0
 51
270.0
  0
ARC
  5
1DE
  8
0
 10
207.353957
 20
614.346735
 30
0.0
 40
17.960167
 50
90.0
 51
180.0
  0
LINE
  5
1DF
  8
0
 10
704.762522
 20
172.623012
 30
0.0
 11
704.762522
 21
307.679989
 31
0.0
  0
LINE
  5
1E0
  8
0
 10
743.996947
 20
153.930791
 30
0.0
 11
743.996947
 21
307.679989
 31
0.0
  0
LINE
  5
1E1
  8
0
 10
504.725094
 20
-0.000009
 30
0.0
 11
504.725094
 21
276.88974
 31
0.0
  0
LINE
  5
1E2
  8
0
 10
671.186585
 20
117.130718
 30
0.0
 11
600.864353
 21
287.134097
 31
0.0
  0
LINE
  5
1E3
  8
0
 10
778.580525
 20
153.930791
 30
0.0
 11
778.580525
 21
303.459167
 31
0.0
  0
LINE
  5
1E4
  8
0
 10
671.186585
 20
-0.000009
 30
0.0
 11
671.186585
 21
117.130718
 31
0.0
  0
LINE
  5
1E5
  8
0
 10
504.725094
 20
-0.000009
 30
0.0
 11
671.186585
 21
-0.000009
 31
0.0
  0
LINE
  5
1E6
  8
0
 10
704.762522
 20
176.843835
 30
0.0
 11
646.486137
 21
176.843835
 31
0.0
  0
CIRCLE
  5
1E7
  8
0
 10
761.288736
 20
180.452286
 30
0.0
 40
14.271333
  0
LINE
  5
1E8
  8
0
 10
743.996947
 20
172.623012
 30
0.0
 11
704.762522
 21
172.623012
 31
0.0
  0
LINE
  5
1E9
  8
0
 10
778.580525
 20
153.930791
 30
0.0
 11
743.996947
 21
153.930791
 31
0.0
  0
LINE
  5
1EA
  8
0
 10
602.606201
 20
294.849907
 30
0.0
 11
602.606201
 21
614.346735
 31
0.0
  0
LINE
  5
1EB
  8
0
 10
653.717277
 20
406.865336
 30
0.0
 11
653.717277
 21
532.236327
 31
0.0
  0
LINE
  5
1EC
  8
0
 62
     1
 10
488.607847
 20
353.787319
 30
0.0
 11
488.607847
 21
610.909829
 31
0.0
  0
LINE
  5
1ED
  8
0
 10
704.762522
 20
303.459167
 30
0.0
 11
602.606201
 21
303.459167
 31
0.0
  0
ARC
  5
1EE
  8
0
 10
584.646034
 20
294.849907
 30
0.0
 40
17.960167
 50
270.0
 51
0.0
  0
LINE
  5
1EF
  8
0
 10
542.243839
 20
370.317093
 30
0.0
 11
542.243839
 21
405.347792
 31
0.0
  0
LINE
  5
1F0
  8
0
 10
507.805065
 20
370.317093
 30
0.0
 11
507.805065
 21
405.347792
 31
0.0
  0
LINE
  5
1F1
  8
0
 10
542.243839
 20
370.317093
 30
0.0
 11
507.805065
 21
370.317093
 31
0.0
  0
LINE
  5
1F2
  8
0
 10
542.243839
 20
405.347792
 30
0.0
 11
507.805065
 21
405.347792
 31
0.0
  0
LINE
  5
1F3
  8
0
 10
602.606201
 20
406.865336
 30
0.0
 11
653.717277
 21
406.865336
 31
0.0
  0
LINE
  5
1F4
  8
0
 10
795.999996
 20
250.288697
 30
0.0
 11
778.580525
 21
250.288697
 31
0.0
  0
LINE
  5
1F5
  8
0
 62
     8
 10
795.999996
 20
265.756469
 30
0.0
 11
778.580525
 21
265.756469
 31
0.0
  0
LINE
  5
1F6
  8
0
 10
795.999996
 20
294.758547
 30
0.0
 11
778.580525
 21
294.758547
 31
0.0
  0
LINE
  5
1F7
  8
0
 62
     8
 10
795.999996
 20
281.224242
 30
0.0
 11
778.580525
 21
281.224242
 31
0.0
  0
CIRCLE
  5
1F8
  8
0
 10
761.288736
 20
274.51637
 30
0.0
 40
14.271333
  0
LINE
  5
1F9
  8
0
 10
743.996947
 20
307.679989
 30
0.0
 11
704.762522
 21
307.679989
 31
0.0
  0
LINE
  5
1FA
  8
0
 10
778.580525
 20
303.459167
 30
0.0
 11
743.996947
 21
303.459167
 31
0.0
  0
LINE
  5
1FB
  8
0
 10
795.999996
 20
250.288697
 30
0.0
 11
795.999996
 21
294.758547
 31
0.0
  0
LINE
  5
1FC
  8
0
 10
653.717277
 20
532.236327
 30
0.0
 11
602.606201
 21
532.236327
 31
0.0
  0
ARC
  5
1FD
  8
0
 10
584.646034
 20
614.346735
 30
0.0
 40
17.960167
 50
0.0
 51
90.0
  0
ENDBLK
  5
1FF
  8
0
  0
BLOCK
  8
0
  2
A$C4ED54A06
 70
     0
 10
0.0
 20
0.0
 30
0.0
  3
A$C4ED54A06
  1

  0
LINE
  5
384
  8
0
 10
763.152141
 20
0.000002
 30
0.0
 11
881.066853
 21
0.000002
 31
0.0
  0
LINE
  5
385
  8
0
 10
665.906883
 20
124.813412
 30
0.0
 11
969.611491
 21
124.813412
 31
0.0
  0
LINE
  5
386
  8
0
 10
758.801831
 20
17.419472
 30
0.0
 11
885.417163
 21
17.419472
 31
0.0
  0
ARC
  5
387
  8
0
 10
822.109497
 20
-120.676272
 30
0.0
 40
200.221737
 50
71.567466
 51
108.432534
  0
ARC
  5
388
  8
0
 10
822.109497
 20
294.025592
 30
0.0
 40
200.221737
 50
251.567466
 51
288.432534
  0
LINE
  5
389
  8
0
 10
820.259048
 20
340.197589
 30
0.0
 11
1149.77877
 21
340.197589
 31
0.0
  0
LINE
  5
38A
  8
0
 10
820.259048
 20
319.86179
 30
0.0
 11
1149.77877
 21
319.86179
 31
0.0
  0
LINE
  5
38B
  8
0
 10
820.983797
 20
142.534474
 30
0.0
 11
906.187187
 21
142.534474
 31
0.0
  0
LINE
  5
38C
  8
0
 10
924.006115
 20
304.134767
 30
0.0
 11
788.009518
 21
304.134767
 31
0.0
  0
LINE
  5
38D
  8
0
 10
788.009518
 20
307.61821
 30
0.0
 11
923.689105
 21
307.61821
 31
0.0
  0
LINE
  5
38E
  8
0
 10
771.796445
 20
283.782283
 30
0.0
 11
917.858768
 21
283.782283
 31
0.0
  0
LINE
  5
38F
  8
0
 10
771.796445
 20
292.943211
 30
0.0
 11
917.858768
 21
292.943211
 31
0.0
  0
LINE
  5
390
  8
0
 10
686.481587
 20
538.780463
 30
0.0
 11
1205.059911
 21
538.780463
 31
0.0
  0
LINE
  5
391
  8
0
 10
724.026872
 20
796.000002
 30
0.0
 11
911.491502
 21
796.000002
 31
0.0
  0
LINE
  5
392
  8
0
 10
686.067654
 20
689.117038
 30
0.0
 11
949.45072
 21
689.117038
 31
0.0
  0
LINE
  5
393
  8
0
  6
DASHED2
 10
0.000005
 20
193.393796
 30
0.0
 11
275.406883
 21
193.393796
 31
0.0
  0
LINE
  5
394
  8
0
  6
DASHED2
 10
0.000005
 20
606.606207
 30
0.0
 11
295.567654
 21
606.606207
 31
0.0
  0
LINE
  5
395
  8
0
  6
DASHED2
 10
0.000005
 20
193.393796
 30
0.0
 11
0.000005
 21
606.606207
 31
0.0
  0
LINE
  5
396
  8
0
 10
390.000005
 20
193.393796
 30
0.0
 11
390.000005
 21
606.606207
 31
0.0
  0
LINE
  5
397
  8
0
 10
686.481587
 20
193.393796
 30
0.0
 11
686.481587
 21
606.606207
 31
0.0
  0
LINE
  5
398
  8
0
 62
     1
 10
665.084514
 20
307.392151
 30
0.0
 11
665.084514
 21
585.209134
 31
0.0
  0
LINE
  5
399
  8
0
 62
     1
 10
411.397078
 20
307.392151
 30
0.0
 11
411.397078
 21
585.209134
 31
0.0
  0
LINE
  5
39A
  8
0
  6
DASHED2
 10
495.118152
 20
104.075905
 30
0.0
 11
533.629761
 21
104.075905
 31
0.0
  0
LINE
  5
39B
  8
0
  6
DASHED2
 10
495.118152
 20
69.273415
 30
0.0
 11
533.629761
 21
69.273415
 31
0.0
  0
LINE
  5
39C
  8
0
  6
DASHED2
 10
495.417163
 20
124.813412
 30
0.0
 11
579.611491
 21
124.813412
 31
0.0
  0
LINE
  5
39D
  8
0
 10
390.000005
 20
193.393796
 30
0.0
 11
686.481587
 21
193.393796
 31
0.0
  0
LINE
  5
39E
  8
0
 62
     1
 10
411.397078
 20
307.392151
 30
0.0
 11
665.084514
 21
307.392151
 31
0.0
  0
LINE
  5
39F
  8
0
  6
DASHED2
 10
275.906883
 20
124.813412
 30
0.0
 11
368.801831
 21
124.813412
 31
0.0
  0
LINE
  5
3A0
  8
0
  6
DASHED2
 10
368.801831
 20
69.273415
 30
0.0
 11
330.290222
 21
69.273415
 31
0.0
  0
LINE
  5
3A1
  8
0
  6
DASHED2
 10
368.801831
 20
104.075905
 30
0.0
 11
330.290222
 21
104.075905
 31
0.0
  0
LINE
  5
3A2
  8
0
  6
DASHED2
 10
275.906883
 20
192.893796
 30
0.0
 11
275.906883
 21
124.813412
 31
0.0
  0
LINE
  5
3A3
  8
0
  6
DASHED2
 10
330.290222
 20
69.273415
 30
0.0
 11
330.290222
 21
104.075905
 31
0.0
  0
LINE
  5
3A4
  8
0
  6
DASHED2
 10
275.406883
 20
193.393796
 30
0.0
 11
275.906883
 21
192.893796
 31
0.0
  0
LINE
  5
3A5
  8
0
  6
DASHED2
 10
373.152141
 20
0.000002
 30
0.0
 11
491.066853
 21
0.000002
 31
0.0
  0
LINE
  5
3A6
  8
0
  6
DASHED2
 10
368.801831
 20
17.419472
 30
0.0
 11
368.801831
 21
69.273415
 31
0.0
  0
LINE
  5
3A7
  8
0
  6
DASHED2
 10
373.152141
 20
0.000002
 30
0.0
 11
373.152141
 21
17.419472
 31
0.0
  0
LINE
  5
3A8
  8
0
  6
DASHED2
 10
368.801831
 20
17.419472
 30
0.0
 11
373.152141
 21
17.419472
 31
0.0
  0
LINE
  5
3A9
  8
0
  6
DASHED2
 10
368.801831
 20
104.075905
 30
0.0
 11
368.801831
 21
124.813412
 31
0.0
  0
LINE
  5
3AA
  8
0
  6
DASHED2
 10
495.417163
 20
17.419472
 30
0.0
 11
495.417163
 21
69.273415
 31
0.0
  0
LINE
  5
3AB
  8
0
  6
DASHED2
 10
491.066853
 20
17.419472
 30
0.0
 11
495.417163
 21
17.419472
 31
0.0
  0
LINE
  5
3AC
  8
0
  6
DASHED2
 10
491.066853
 20
0.000002
 30
0.0
 11
491.066853
 21
17.419472
 31
0.0
  0
LINE
  5
3AD
  8
0
  6
DASHED2
 10
495.417163
 20
104.075905
 30
0.0
 11
495.417163
 21
124.813412
 31
0.0
  0
LINE
  5
3AE
  8
0
 10
435.913333
 20
288.194932
 30
0.0
 11
459.478014
 21
288.194932
 31
0.0
  0
LINE
  5
3AF
  8
0
 10
435.913333
 20
253.756158
 30
0.0
 11
459.478014
 21
253.756158
 31
0.0
  0
LINE
  5
3B0
  8
0
 10
435.913333
 20
253.756158
 30
0.0
 11
435.913333
 21
288.194932
 31
0.0
  0
LINE
  5
3B1
  8
0
 10
459.478014
 20
253.756158
 30
0.0
 11
459.478014
 21
288.194932
 31
0.0
  0
LINE
  5
3B2
  8
0
  6
DASHED2
 10
579.611491
 20
159.103604
 30
0.0
 11
579.611491
 21
124.813412
 31
0.0
  0
LINE
  5
3B3
  8
0
 10
665.906883
 20
193.393796
 30
0.0
 11
665.906883
 21
124.813412
 31
0.0
  0
LINE
  5
3B4
  8
0
  6
DASHED2
 10
533.629761
 20
69.273415
 30
0.0
 11
533.629761
 21
104.075905
 31
0.0
  0
LINE
  5
3B5
  8
0
 10
758.801831
 20
104.075905
 30
0.0
 11
720.290222
 21
104.075905
 31
0.0
  0
LINE
  5
3B6
  8
0
 10
758.801831
 20
69.273415
 30
0.0
 11
720.290222
 21
69.273415
 31
0.0
  0
LINE
  5
3B7
  8
0
 10
720.290222
 20
69.273415
 30
0.0
 11
720.290222
 21
104.075905
 31
0.0
  0
LINE
  5
3B8
  8
0
 10
758.801831
 20
17.419472
 30
0.0
 11
758.801831
 21
69.273415
 31
0.0
  0
LINE
  5
3B9
  8
0
 62
     8
 10
774.725914
 20
0.000002
 30
0.0
 11
774.725914
 21
17.419472
 31
0.0
  0
LINE
  5
3BA
  8
0
 10
763.152141
 20
0.000002
 30
0.0
 11
763.152141
 21
17.419472
 31
0.0
  0
LINE
  5
3BB
  8
0
 62
     8
 10
790.193686
 20
0.000002
 30
0.0
 11
790.193686
 21
17.419472
 31
0.0
  0
LINE
  5
3BC
  8
0
 62
     8
 10
805.661459
 20
0.000002
 30
0.0
 11
805.661459
 21
17.419472
 31
0.0
  0
LINE
  5
3BD
  8
0
 62
     8
 10
821.129231
 20
0.000002
 30
0.0
 11
821.129231
 21
17.419472
 31
0.0
  0
LINE
  5
3BE
  8
0
 10
758.801831
 20
104.075905
 30
0.0
 11
758.801831
 21
124.813412
 31
0.0
  0
LINE
  5
3BF
  8
0
 10
686.481587
 20
328.600733
 30
0.0
 11
820.259048
 21
328.600733
 31
0.0
  0
LINE
  5
3C0
  8
0
 62
     1
 10
686.481587
 20
226.324668
 30
0.0
 11
820.983797
 21
226.324668
 31
0.0
  0
LINE
  5
3C1
  8
0
 10
820.983797
 20
283.782283
 30
0.0
 11
820.983797
 21
142.534474
 31
0.0
  0
LINE
  5
3C2
  8
0
 10
779.935891
 20
276.787628
 30
0.0
 11
803.229433
 21
276.787628
 31
0.0
  0
LINE
  5
3C3
  8
0
 10
771.796445
 20
292.943211
 30
0.0
 11
771.796445
 21
283.782283
 31
0.0
  0
LINE
  5
3C4
  8
0
 10
786.997405
 20
276.787628
 30
0.0
 11
786.997405
 21
283.782283
 31
0.0
  0
LINE
  5
3C5
  8
0
 10
779.935891
 20
276.787628
 30
0.0
 11
779.935891
 21
283.782283
 31
0.0
  0
LINE
  5
3C6
  8
0
 10
788.009518
 20
304.134767
 30
0.0
 11
788.009518
 21
307.61821
 31
0.0
  0
LINE
  5
3C7
  8
0
 10
786.997405
 20
292.943211
 30
0.0
 11
786.997405
 21
328.600733
 31
0.0
  0
LINE
  5
3C8
  8
0
 10
803.229433
 20
276.787628
 30
0.0
 11
803.229433
 21
283.782283
 31
0.0
  0
LINE
  5
3C9
  8
0
 10
796.167919
 20
276.787628
 30
0.0
 11
796.167919
 21
283.782283
 31
0.0
  0
LINE
  5
3CA
  8
0
 10
796.167919
 20
307.61821
 30
0.0
 11
796.167919
 21
328.600733
 31
0.0
  0
LINE
  5
3CB
  8
0
 10
796.167919
 20
292.943211
 30
0.0
 11
796.167919
 21
304.134767
 31
0.0
  0
LINE
  5
3CC
  8
0
 10
820.259048
 20
340.197589
 30
0.0
 11
820.259048
 21
319.86179
 31
0.0
  0
LINE
  5
3CD
  8
0
 10
390.000005
 20
606.606207
 30
0.0
 11
686.481587
 21
606.606207
 31
0.0
  0
LINE
  5
3CE
  8
0
 62
     1
 10
411.397078
 20
585.209134
 30
0.0
 11
665.084514
 21
585.209134
 31
0.0
  0
ARC
  5
3CF
  8
0
  6
DASHED2
 10
141.152704
 20
600.741583
 30
0.0
 40
427.531813
 50
11.929668
 51
27.175068
  0
ARC
  5
3D0
  8
0
  6
DASHED2
 10
714.36567
 20
600.741583
 30
0.0
 40
427.531813
 50
152.824932
 51
168.070332
  0
LINE
  5
3D1
  8
0
  6
DASHED2
 10
296.067654
 20
607.106207
 30
0.0
 11
296.067654
 21
689.117038
 31
0.0
  0
LINE
  5
3D2
  8
0
  6
DASHED2
 10
295.567654
 20
606.606207
 30
0.0
 11
296.067654
 21
607.106207
 31
0.0
  0
LINE
  5
3D3
  8
0
  6
DASHED2
 10
334.026872
 20
796.000002
 30
0.0
 11
521.491502
 21
796.000002
 31
0.0
  0
ARC
  5
3D4
  8
0
 10
1104.36567
 20
600.741583
 30
0.0
 40
427.531813
 50
152.824932
 51
168.070332
  0
LINE
  5
3D5
  8
0
  6
DASHED2
 10
559.45072
 20
619.384787
 30
0.0
 11
559.45072
 21
689.117038
 31
0.0
  0
LINE
  5
3D6
  8
0
 62
     8
 10
752.902033
 20
538.780463
 30
0.0
 11
752.902033
 21
673.139869
 31
0.0
  0
LINE
  5
3D7
  8
0
 62
     8
 10
771.855067
 20
538.780463
 30
0.0
 11
771.855067
 21
673.139869
 31
0.0
  0
LINE
  5
3D8
  8
0
 62
     8
 10
828.714168
 20
538.780463
 30
0.0
 11
828.714168
 21
673.139869
 31
0.0
  0
LINE
  5
3D9
  8
0
 62
     8
 10
809.761134
 20
538.780463
 30
0.0
 11
809.761134
 21
673.139869
 31
0.0
  0
LINE
  5
3DA
  8
0
 62
     8
 10
790.8081
 20
538.780463
 30
0.0
 11
790.8081
 21
673.139869
 31
0.0
  0
LINE
  5
3DB
  8
0
 62
     8
 10
714.995965
 20
538.780463
 30
0.0
 11
714.995965
 21
689.117038
 31
0.0
  0
LINE
  5
3DC
  8
0
 62
     8
 10
733.948999
 20
538.780463
 30
0.0
 11
733.948999
 21
673.139869
 31
0.0
  0
LINE
  5
3DD
  8
0
 10
694.047876
 20
538.780463
 30
0.0
 11
694.047876
 21
676.338458
 31
0.0
  0
LINE
  5
3DE
  8
0
 10
694.047876
 20
676.338458
 30
0.0
 11
714.995965
 21
689.117038
 31
0.0
  0
LINE
  5
3DF
  8
0
 10
1373.118404
 20
552.780463
 30
0.0
 11
1632.064466
 21
552.780463
 31
0.0
  0
LINE
  5
3E0
  8
0
 10
1373.118404
 20
302.780463
 30
0.0
 11
1632.064466
 21
302.780463
 31
0.0
  0
LINE
  5
3E1
  8
0
 10
1149.77877
 20
303.420576
 30
0.0
 11
1149.77877
 21
384.221857
 31
0.0
  0
LINE
  5
3E2
  8
0
 10
1175.225637
 20
303.420576
 30
0.0
 11
1175.225637
 21
384.221857
 31
0.0
  0
LINE
  5
3E3
  8
0
 10
1205.059911
 20
283.493157
 30
0.0
 11
1205.059911
 21
572.067769
 31
0.0
  0
LINE
  5
3E4
  8
0
 62
     8
 10
1228.725203
 20
271.077406
 30
0.0
 11
1228.725203
 21
584.48352
 31
0.0
  0
LINE
  5
3E5
  8
0
 10
1214.726718
 20
271.077406
 30
0.0
 11
1214.726718
 21
584.48352
 31
0.0
  0
LINE
  5
3E6
  8
0
 62
     8
 10
1260.045201
 20
265.559301
 30
0.0
 11
1260.045201
 21
590.001625
 31
0.0
  0
LINE
  5
3E7
  8
0
 10
1280.000005
 20
265.559301
 30
0.0
 11
1280.000005
 21
590.001625
 31
0.0
  0
LINE
  5
3E8
  8
0
 62
     8
 10
1373.118404
 20
302.780463
 30
0.0
 11
1373.118404
 21
552.780463
 31
0.0
  0
LINE
  5
3E9
  8
0
 10
1024.041838
 20
301.170994
 30
0.0
 11
927.924631
 21
301.170994
 31
0.0
  0
LINE
  5
3EA
  8
0
 10
1024.041838
 20
307.734718
 30
0.0
 11
931.206493
 21
307.734718
 31
0.0
  0
LINE
  5
3EB
  8
0
 10
923.629761
 20
82.572333
 30
0.0
 11
1040.160156
 21
82.572333
 31
0.0
  0
LINE
  5
3EC
  8
0
 10
923.629761
 20
90.776987
 30
0.0
 11
1026.306537
 21
90.776987
 31
0.0
  0
LINE
  5
3ED
  8
0
 10
969.611491
 20
301.170994
 30
0.0
 11
969.611491
 21
124.813412
 31
0.0
  0
LINE
  5
3EE
  8
0
 10
885.118152
 20
104.075905
 30
0.0
 11
923.629761
 21
104.075905
 31
0.0
  0
LINE
  5
3EF
  8
0
 10
885.118152
 20
69.273415
 30
0.0
 11
923.629761
 21
69.273415
 31
0.0
  0
LINE
  5
3F0
  8
0
 10
885.417163
 20
17.419472
 30
0.0
 11
885.417163
 21
69.273415
 31
0.0
  0
LINE
  5
3F1
  8
0
 62
     8
 10
836.597003
 20
0.000002
 30
0.0
 11
836.597003
 21
17.419472
 31
0.0
  0
LINE
  5
3F2
  8
0
 62
     8
 10
852.064775
 20
0.000002
 30
0.0
 11
852.064775
 21
17.419472
 31
0.0
  0
LINE
  5
3F3
  8
0
 62
     8
 10
867.532548
 20
0.000002
 30
0.0
 11
867.532548
 21
17.419472
 31
0.0
  0
LINE
  5
3F4
  8
0
 10
881.066853
 20
0.000002
 30
0.0
 11
881.066853
 21
17.419472
 31
0.0
  0
LINE
  5
3F5
  8
0
 10
885.417163
 20
104.075905
 30
0.0
 11
885.417163
 21
124.813412
 31
0.0
  0
LINE
  5
3F6
  8
0
 10
923.629761
 20
69.273415
 30
0.0
 11
923.629761
 21
104.075905
 31
0.0
  0
LINE
  5
3F7
  8
0
 62
     1
 10
906.187187
 20
226.324668
 30
0.0
 11
969.611491
 21
226.324668
 31
0.0
  0
LINE
  5
3F8
  8
0
 10
906.187187
 20
142.534474
 30
0.0
 11
906.187187
 21
283.782283
 31
0.0
  0
LINE
  5
3F9
  8
0
 10
917.858768
 20
283.782283
 30
0.0
 11
917.858768
 21
292.943211
 31
0.0
  0
ARC
  5
3FA
  8
0
 10
927.924631
 20
304.452856
 30
0.0
 40
3.281862
 50
180.0
 51
0.0
  0
LINE
  5
3FB
  8
0
 10
924.642769
 20
304.452856
 30
0.0
 11
924.642769
 21
319.86179
 31
0.0
  0
LINE
  5
3FC
  8
0
 10
931.206493
 20
304.452856
 30
0.0
 11
931.206493
 21
319.86179
 31
0.0
  0
LINE
  5
3FD
  8
0
 10
969.611491
 20
319.86179
 30
0.0
 11
969.611491
 21
307.734718
 31
0.0
  0
LINE
  5
3FE
  8
0
 10
1048.077565
 20
104.343361
 30
0.0
 11
1048.077565
 21
319.86179
 31
0.0
  0
LINE
  5
3FF
  8
0
 10
1039.872911
 20
104.097191
 30
0.0
 11
1039.872911
 21
319.86179
 31
0.0
  0
LINE
  5
400
  8
0
 10
1053.726531
 20
104.343361
 30
0.0
 11
1053.726531
 21
319.86179
 31
0.0
  0
LINE
  5
401
  8
0
 10
1061.931185
 20
104.343361
 30
0.0
 11
1061.931185
 21
319.86179
 31
0.0
  0
ARC
  5
402
  8
0
 10
1026.306537
 20
104.343361
 30
0.0
 40
13.566374
 50
270.0
 51
360.0
  0
ARC
  5
403
  8
0
 10
1026.306537
 20
104.343361
 30
0.0
 40
21.771028
 50
270.0
 51
360.0
  0
ARC
  5
404
  8
0
 10
1040.160156
 20
104.343361
 30
0.0
 40
13.566374
 50
285.113925
 51
360.0
  0
ARC
  5
405
  8
0
 10
1040.160156
 20
104.343361
 30
0.0
 40
21.771028
 50
270.0
 51
360.0
  0
ARC
  5
406
  8
0
 10
1024.041838
 20
304.452856
 30
0.0
 40
3.281862
 50
270.0
 51
90.0
  0
LINE
  5
407
  8
0
 10
1280.000005
 20
306.919044
 30
0.0
 11
1373.118404
 21
306.919044
 31
0.0
  0
LINE
  5
408
  8
0
 10
1214.726718
 20
271.077406
 30
0.0
 11
1260.045201
 21
271.077406
 31
0.0
  0
LINE
  5
409
  8
0
 10
1175.225637
 20
319.86179
 30
0.0
 11
1205.059911
 21
319.86179
 31
0.0
  0
LINE
  5
40A
  8
0
 10
1175.225637
 20
319.86179
 30
0.0
 11
1205.059911
 21
319.86179
 31
0.0
  0
LINE
  5
40B
  8
0
 10
1175.225637
 20
340.197589
 30
0.0
 11
1205.059911
 21
340.197589
 31
0.0
  0
LINE
  5
40C
  8
0
 10
1149.77877
 20
303.420576
 30
0.0
 11
1175.225637
 21
303.420576
 31
0.0
  0
LINE
  5
40D
  8
0
 10
1205.059911
 20
283.493157
 30
0.0
 11
1214.726718
 21
283.493157
 31
0.0
  0
LINE
  5
40E
  8
0
 10
1260.045201
 20
265.559301
 30
0.0
 11
1280.000005
 21
265.559301
 31
0.0
  0
LINE
  5
40F
  8
0
 10
1106.903727
 20
589.708663
 30
0.0
 11
1152.075323
 21
589.708663
 31
0.0
  0
LINE
  5
410
  8
0
 10
1152.075323
 20
608.708395
 30
0.0
 11
1106.903727
 21
608.708395
 31
0.0
  0
LINE
  5
411
  8
0
 10
1163.962591
 20
577.833833
 30
0.0
 11
1130.67825
 21
577.833833
 31
0.0
  0
ARC
  5
412
  8
0
 10
531.152704
 20
600.741583
 30
0.0
 40
427.531813
 50
11.929668
 51
27.175068
  0
LINE
  5
413
  8
0
 10
941.470498
 20
538.780463
 30
0.0
 11
941.470498
 21
676.338458
 31
0.0
  0
LINE
  5
414
  8
0
 62
     8
 10
920.522409
 20
538.780463
 30
0.0
 11
920.522409
 21
689.117038
 31
0.0
  0
LINE
  5
415
  8
0
 62
     8
 10
904.526303
 20
538.780463
 30
0.0
 11
904.526303
 21
673.139869
 31
0.0
  0
LINE
  5
416
  8
0
 62
     8
 10
885.573269
 20
538.780463
 30
0.0
 11
885.573269
 21
673.139869
 31
0.0
  0
LINE
  5
417
  8
0
 62
     8
 10
866.620235
 20
538.780463
 30
0.0
 11
866.620235
 21
673.139869
 31
0.0
  0
LINE
  5
418
  8
0
 62
     8
 10
847.667202
 20
538.780463
 30
0.0
 11
847.667202
 21
673.139869
 31
0.0
  0
LINE
  5
419
  8
0
 10
868.273227
 20
383.03954
 30
0.0
 11
922.570279
 21
383.03954
 31
0.0
  0
LINE
  5
41A
  8
0
 10
868.273227
 20
364.278143
 30
0.0
 11
922.570279
 21
364.278143
 31
0.0
  0
LINE
  5
41B
  8
0
 10
868.273227
 20
472.521386
 30
0.0
 11
922.570279
 21
472.521386
 31
0.0
  0
LINE
  5
41C
  8
0
 10
868.273227
 20
491.282783
 30
0.0
 11
922.570279
 21
491.282783
 31
0.0
  0
LINE
  5
41D
  8
0
 10
868.273227
 20
364.278143
 30
0.0
 11
868.273227
 21
383.03954
 31
0.0
  0
LINE
  5
41E
  8
0
 10
868.273227
 20
472.521386
 30
0.0
 11
868.273227
 21
491.282783
 31
0.0
  0
LINE
  5
41F
  8
0
 10
922.570279
 20
364.278143
 30
0.0
 11
922.570279
 21
383.03954
 31
0.0
  0
LINE
  5
420
  8
0
 10
922.570279
 20
472.521386
 30
0.0
 11
922.570279
 21
491.282783
 31
0.0
  0
LINE
  5
421
  8
0
 10
941.470498
 20
676.338458
 30
0.0
 11
920.522409
 21
689.117038
 31
0.0
  0
LINE
  5
422
  8
0
 10
1040.335059
 20
577.833833
 30
0.0
 11
1040.335059
 21
538.780463
 31
0.0
  0
LINE
  5
423
  8
0
 10
1130.67825
 20
577.833833
 30
0.0
 11
1130.67825
 21
538.780463
 31
0.0
  0
LINE
  5
424
  8
0
 10
1118.790995
 20
538.780463
 30
0.0
 11
1118.790995
 21
577.833833
 31
0.0
  0
LINE
  5
425
  8
0
 10
1085.506654
 20
577.833833
 30
0.0
 11
1085.506654
 21
538.780463
 31
0.0
  0
LINE
  5
426
  8
0
 10
1073.619399
 20
538.780463
 30
0.0
 11
1073.619399
 21
577.833833
 31
0.0
  0
LINE
  5
427
  8
0
 10
1047.467399
 20
589.708663
 30
0.0
 11
1092.638995
 21
589.708663
 31
0.0
  0
LINE
  5
428
  8
0
 10
1092.638995
 20
608.708395
 30
0.0
 11
1047.467399
 21
608.708395
 31
0.0
  0
LINE
  5
429
  8
0
 10
1073.619399
 20
577.833833
 30
0.0
 11
1040.335059
 21
577.833833
 31
0.0
  0
LINE
  5
42A
  8
0
 10
1047.467399
 20
608.708395
 30
0.0
 11
1047.467399
 21
589.708663
 31
0.0
  0
LINE
  5
42B
  8
0
 10
1118.790995
 20
577.833833
 30
0.0
 11
1085.506654
 21
577.833833
 31
0.0
  0
LINE
  5
42C
  8
0
 10
1092.638995
 20
589.708663
 30
0.0
 11
1092.638995
 21
608.708395
 31
0.0
  0
LINE
  5
42D
  8
0
 10
1106.903727
 20
608.708395
 30
0.0
 11
1106.903727
 21
589.708663
 31
0.0
  0
LINE
  5
42E
  8
0
 10
1280.000005
 20
548.641882
 30
0.0
 11
1373.118404
 21
548.641882
 31
0.0
  0
LINE
  5
42F
  8
0
 10
1163.962591
 20
538.780463
 30
0.0
 11
1163.962591
 21
577.833833
 31
0.0
  0
LINE
  5
430
  8
0
 10
1215.381432
 20
419.286147
 30
0.0
 11
1269.678484
 21
419.286147
 31
0.0
  0
LINE
  5
431
  8
0
 10
1215.381432
 20
438.047543
 30
0.0
 11
1269.678484
 21
438.047543
 31
0.0
  0
LINE
  5
432
  8
0
 10
1215.381432
 20
419.286147
 30
0.0
 11
1215.381432
 21
438.047543
 31
0.0
  0
LINE
  5
433
  8
0
 10
1269.678484
 20
419.286147
 30
0.0
 11
1269.678484
 21
438.047543
 31
0.0
  0
LINE
  5
434
  8
0
 10
1214.726718
 20
584.48352
 30
0.0
 11
1247.265846
 21
584.48352
 31
0.0
  0
LINE
  5
435
  8
0
 10
1152.075323
 20
589.708663
 30
0.0
 11
1152.075323
 21
608.708395
 31
0.0
  0
LINE
  5
436
  8
0
 10
1205.059911
 20
572.067769
 30
0.0
 11
1214.726718
 21
572.067769
 31
0.0
  0
LINE
  5
437
  8
0
 10
1247.265846
 20
590.001625
 30
0.0
 11
1280.000005
 21
590.001625
 31
0.0
  0
LINE
  5
438
  8
0
 10
1247.265846
 20
584.48352
 30
0.0
 11
1247.265846
 21
590.001625
 31
0.0
  0
LINE
  5
439
  8
0
 10
1671.000005
 20
318.466995
 30
0.0
 11
1671.000005
 21
537.093931
 31
0.0
  0
LINE
  5
43A
  8
0
 10
1632.064466
 20
552.780463
 30
0.0
 11
1632.064466
 21
302.780463
 31
0.0
  0
LINE
  5
43B
  8
0
 62
     8
 10
1622.397659
 20
552.780463
 30
0.0
 11
1622.397659
 21
302.780463
 31
0.0
  0
LINE
  5
43C
  8
0
 10
1671.000005
 20
318.466995
 30
0.0
 11
1632.064466
 21
302.780463
 31
0.0
  0
LINE
  5
43D
  8
0
 10
1671.000005
 20
537.093931
 30
0.0
 11
1632.064466
 21
552.780463
 31
0.0
  0
ENDBLK
  5
43F
  8
0
  0
BLOCK
  8
0
  2
A$C3A1B7C56
 70
     0
 10
0.0
 20
0.0
 30
0.0
  3
A$C3A1B7C56
  1

  0
LINE
  5
443
  8
0
 10
852.853977
 20
311.239192
 30
0.0
 11
817.759187
 21
311.239192
 31
0.0
  0
LINE
  5
444
  8
0
 10
799.008025
 20
562.548833
 30
0.0
 11
1205.059911
 21
562.548833
 31
0.0
  0
LINE
  5
445
  8
0
 10
820.983797
 20
406.865346
 30
0.0
 11
906.187187
 21
406.865346
 31
0.0
  0
LINE
  5
446
  8
0
 10
820.259048
 20
535.52182
 30
0.0
 11
1149.77877
 21
535.52182
 31
0.0
  0
LINE
  5
447
  8
0
 10
820.259048
 20
555.85762
 30
0.0
 11
1149.77877
 21
555.85762
 31
0.0
  0
LINE
  5
448
  8
0
 10
906.187187
 20
532.236337
 30
0.0
 11
820.983797
 21
532.236337
 31
0.0
  0
LINE
  5
449
  8
0
 10
917.858768
 20
535.52182
 30
0.0
 11
820.259048
 21
535.52182
 31
0.0
  0
LINE
  5
44A
  8
0
 62
     8
 10
778.268086
 20
283.10373
 30
0.0
 11
859.675034
 21
283.10373
 31
0.0
  0
LINE
  5
44B
  8
0
 62
     8
 10
778.268086
 20
259.719951
 30
0.0
 11
859.675034
 21
259.719951
 31
0.0
  0
LINE
  5
44C
  8
0
 10
852.853977
 20
196.536427
 30
0.0
 11
817.759187
 21
196.536427
 31
0.0
  0
LINE
  5
44D
  8
0
 62
     1
 10
625.424836
 20
65.675044
 30
0.0
 11
1010.093538
 21
65.675044
 31
0.0
  0
LINE
  5
44E
  8
0
 10
625.424836
 20
0.0
 30
0.0
 11
1010.093538
 21
0.0
 31
0.0
  0
LINE
  5
44F
  8
0
 62
     1
 10
625.424836
 20
21.474986
 30
0.0
 11
1010.093538
 21
21.474986
 31
0.0
  0
LINE
  5
450
  8
0
 10
833.189202
 20
173.524788
 30
0.0
 11
1039.872911
 21
173.524788
 31
0.0
  0
LINE
  5
451
  8
0
 10
833.189202
 20
181.729442
 30
0.0
 11
1037.744949
 21
181.729442
 31
0.0
  0
ARC
  5
452
  8
0
 10
817.759187
 20
257.113773
 30
0.0
 40
148.484951
 50
16.333073
 51
163.666927
  0
LINE
  5
453
  8
0
  6
DASHED2
 10
164.090346
 20
243.302674
 30
0.0
 11
0.000005
 21
332.900226
 31
0.0
  0
LINE
  5
454
  8
0
 10
773.105837
 20
301.680633
 30
0.0
 11
773.105837
 21
206.094986
 31
0.0
  0
LINE
  5
455
  8
0
 10
625.424836
 20
128.78969
 30
0.0
 11
675.266625
 21
298.870813
 31
0.0
  0
LINE
  5
456
  8
0
 10
492.578457
 20
276.88975
 30
0.0
 11
390.000005
 21
332.900226
 31
0.0
  0
LINE
  5
457
  8
0
 10
656.062219
 20
576.296435
 30
0.0
 11
492.578457
 21
276.88975
 31
0.0
  0
POLYLINE
  5
458
  8
0
 66
     1
 10
0.0
 20
0.0
 30
0.0
  0
VERTEX
  5
563
  8
0
 10
833.216126
 20
562.548833
 30
0.0
  0
VERTEX
  5
564
  8
0
 10
799.008025
 20
562.548833
 30
0.0
 42
0.684495
  0
VERTEX
  5
565
  8
0
 10
627.913225
 20
121.829951
 30
0.0
 42
0.684495
  0
SEQEND
  5
566
  8
0
  0
ARC
  5
459
  8
0
 62
     1
 10
821.680465
 20
252.271639
 30
0.0
 40
183.272395
 50
90.217797
 51
196.721692
  0
POLYLINE
  5
45A
  8
0
  6
DASHED2
 66
     1
 10
0.0
 20
0.0
 30
0.0
  0
VERTEX
  5
567
  8
0
  6
DASHED2
 10
164.090346
 20
243.302674
 30
0.0
 42
0.143011
  0
VERTEX
  5
568
  8
0
  6
DASHED2
 10
237.913225
 20
121.829951
 30
0.0
  0
SEQEND
  5
569
  8
0
  6
DASHED2
  0
LINE
  5
45B
  8
0
  6
DASHED2
 10
235.424836
 20
0.0
 30
0.0
 11
585.126888
 21
0.0
 31
0.0
  0
LINE
  5
45C
  8
0
  6
DASHED2
 10
235.424836
 20
128.78969
 30
0.0
 11
235.424836
 21
0.0
 31
0.0
  0
LINE
  5
45D
  8
0
 10
625.424836
 20
128.78969
 30
0.0
 11
625.424836
 21
0.0
 31
0.0
  0
POLYLINE
  5
45E
  8
0
 66
     1
 10
0.0
 20
0.0
 30
0.0
 70
     1
  0
VERTEX
  5
56A
  8
0
 10
759.594751
 20
265.452483
 30
0.0
  0
VERTEX
  5
56B
  8
0
 10
763.035387
 20
271.41184
 30
0.0
  0
VERTEX
  5
56C
  8
0
 10
759.594751
 20
277.371198
 30
0.0
  0
VERTEX
  5
56D
  8
0
 10
752.713478
 20
277.371198
 30
0.0
  0
VERTEX
  5
56E
  8
0
 10
749.272841
 20
271.41184
 30
0.0
  0
VERTEX
  5
56F
  8
0
 10
752.713478
 20
265.452483
 30
0.0
  0
SEQEND
  5
570
  8
0
  0
CIRCLE
  5
45F
  8
0
 10
756.154114
 20
271.41184
 30
0.0
 40
8.466999
  0
LINE
  5
460
  8
0
 10
773.105837
 20
292.122073
 30
0.0
 11
743.396822
 21
280.292276
 31
0.0
  0
LINE
  5
461
  8
0
 10
773.105837
 20
250.701608
 30
0.0
 11
743.396822
 21
262.531405
 31
0.0
  0
ARC
  5
462
  8
0
 10
746.932912
 20
271.41184
 30
0.0
 40
9.55856
 50
111.711893
 51
248.288107
  0
LINE
  5
463
  8
0
 10
830.008755
 20
191.171479
 30
0.0
 11
830.008755
 21
164.08275
 31
0.0
  0
LINE
  5
464
  8
0
 10
833.189202
 20
186.094113
 30
0.0
 11
833.189202
 21
169.160116
 31
0.0
  0
CIRCLE
  5
465
  8
0
 10
794.702616
 20
177.627115
 30
0.0
 40
8.466999
  0
LINE
  5
466
  8
0
 10
805.50962
 20
191.171479
 30
0.0
 11
805.50962
 21
164.08275
 31
0.0
  0
POLYLINE
  5
467
  8
0
 66
     1
 10
0.0
 20
0.0
 30
0.0
 70
     1
  0
VERTEX
  5
571
  8
0
 10
798.143252
 20
171.667757
 30
0.0
  0
VERTEX
  5
572
  8
0
 10
801.583889
 20
177.627115
 30
0.0
  0
VERTEX
  5
573
  8
0
 10
798.143252
 20
183.586472
 30
0.0
  0
VERTEX
  5
574
  8
0
 10
791.261979
 20
183.586472
 30
0.0
  0
VERTEX
  5
575
  8
0
 10
787.821342
 20
177.627115
 30
0.0
  0
VERTEX
  5
576
  8
0
 10
791.261979
 20
171.667757
 30
0.0
  0
SEQEND
  5
577
  8
0
  0
LINE
  5
468
  8
0
 10
807.203859
 20
159.005597
 30
0.0
 11
828.314515
 21
159.005597
 31
0.0
  0
LINE
  5
469
  8
0
 10
805.50962
 20
164.08275
 30
0.0
 11
830.008755
 21
164.08275
 31
0.0
  0
LINE
  5
46A
  8
0
 10
794.702616
 20
169.160116
 30
0.0
 11
805.50962
 21
169.160116
 31
0.0
  0
LINE
  5
46B
  8
0
 10
807.203859
 20
164.08275
 30
0.0
 11
807.203859
 21
159.005597
 31
0.0
  0
LINE
  5
46C
  8
0
 10
830.008755
 20
169.160116
 30
0.0
 11
833.189202
 21
169.160116
 31
0.0
  0
LINE
  5
46D
  8
0
 10
828.314515
 20
164.08275
 30
0.0
 11
828.314515
 21
159.005597
 31
0.0
  0
LINE
  5
46E
  8
0
 10
782.664397
 20
196.536427
 30
0.0
 11
817.759187
 21
196.536427
 31
0.0
  0
ARC
  5
46F
  8
0
 10
782.664397
 20
206.094986
 30
0.0
 40
9.55856
 50
180.0
 51
270.0
  0
LINE
  5
470
  8
0
 10
756.154114
 20
279.878839
 30
0.0
 11
773.105837
 21
279.878839
 31
0.0
  0
LINE
  5
471
  8
0
 10
756.154114
 20
262.944842
 30
0.0
 11
773.105837
 21
262.944842
 31
0.0
  0
LINE
  5
472
  8
0
 10
805.50962
 20
191.171479
 30
0.0
 11
830.008755
 21
191.171479
 31
0.0
  0
LINE
  5
473
  8
0
 10
794.702616
 20
186.094113
 30
0.0
 11
805.50962
 21
186.094113
 31
0.0
  0
LINE
  5
474
  8
0
 10
807.203859
 20
196.536427
 30
0.0
 11
807.203859
 21
191.171479
 31
0.0
  0
LINE
  5
475
  8
0
 10
830.008755
 20
186.094113
 30
0.0
 11
833.189202
 21
186.094113
 31
0.0
  0
LINE
  5
476
  8
0
 10
828.314515
 20
196.536427
 30
0.0
 11
828.314515
 21
191.171479
 31
0.0
  0
LINE
  5
477
  8
0
  6
DASHED2
 10
266.062219
 20
576.296435
 30
0.0
 11
163.483767
 21
632.306911
 31
0.0
  0
LINE
  5
478
  8
0
  6
DASHED2
 10
163.483767
 20
632.306911
 30
0.0
 11
0.000005
 21
332.900226
 31
0.0
  0
LINE
  5
479
  8
0
 10
553.483767
 20
632.306911
 30
0.0
 11
390.000005
 21
332.900226
 31
0.0
  0
POLYLINE
  5
47A
  8
0
  6
DASHED2
 66
     1
 10
0.0
 20
0.0
 30
0.0
  0
VERTEX
  5
578
  8
0
  6
DASHED2
 10
409.008025
 20
562.548833
 30
0.0
  0
VERTEX
  5
579
  8
0
  6
DASHED2
 10
361.522288
 20
562.548833
 30
0.0
 42
-0.065507
  0
VERTEX
  5
57A
  8
0
  6
DASHED2
 10
273.263643
 20
574.017933
 30
0.0
 42
-0.065507
  0
SEQEND
  5
57B
  8
0
  6
DASHED2
  0
LINE
  5
47B
  8
0
  6
DASHED2
 10
425.309337
 20
562.548833
 30
0.0
 11
494.923723
 21
562.548833
 31
0.0
  0
POLYLINE
  5
47C
  8
0
 66
     1
 10
0.0
 20
0.0
 30
0.0
  0
VERTEX
  5
57C
  8
0
 10
799.008025
 20
562.548833
 30
0.0
  0
VERTEX
  5
57D
  8
0
 10
751.522288
 20
562.548833
 30
0.0
 42
-0.065507
  0
VERTEX
  5
57E
  8
0
 10
663.263643
 20
574.017933
 30
0.0
 42
-0.065507
  0
SEQEND
  5
57F
  8
0
  0
LINE
  5
47D
  8
0
 10
663.263643
 20
574.017933
 30
0.0
 11
612.126653
 21
480.36486
 31
0.0
  0
LINE
  5
47E
  8
0
 10
656.062219
 20
576.296435
 30
0.0
 11
553.483767
 21
632.306911
 31
0.0
  0
LINE
  5
47F
  8
0
 10
820.983797
 20
532.236337
 30
0.0
 11
820.983797
 21
406.865346
 31
0.0
  0
POLYLINE
  5
480
  8
0
 66
     1
 10
0.0
 20
0.0
 30
0.0
 70
     1
  0
VERTEX
  5
580
  8
0
 10
797.401281
 20
504.999484
 30
0.0
  0
VERTEX
  5
581
  8
0
 10
803.219901
 20
515.077628
 30
0.0
  0
VERTEX
  5
582
  8
0
 10
797.401281
 20
525.155773
 30
0.0
  0
VERTEX
  5
583
  8
0
 10
785.764043
 20
525.155773
 30
0.0
  0
VERTEX
  5
584
  8
0
 10
779.945423
 20
515.077628
 30
0.0
  0
VERTEX
  5
585
  8
0
 10
785.764043
 20
504.999484
 30
0.0
  0
SEQEND
  5
586
  8
0
  0
LINE
  5
481
  8
0
 10
771.796445
 20
527.552521
 30
0.0
 11
771.796445
 21
453.375811
 31
0.0
  0
LINE
  5
482
  8
0
 10
782.664397
 20
311.239192
 30
0.0
 11
817.759187
 21
311.239192
 31
0.0
  0
ARC
  5
483
  8
0
 10
782.664397
 20
301.680633
 30
0.0
 40
9.55856
 50
90.0
 51
180.0
  0
POLYLINE
  5
484
  8
0
 66
     1
 10
0.0
 20
0.0
 30
0.0
 70
     1
  0
VERTEX
  5
587
  8
0
 10
797.401281
 20
456.169731
 30
0.0
  0
VERTEX
  5
588
  8
0
 10
803.219901
 20
466.247875
 30
0.0
  0
VERTEX
  5
589
  8
0
 10
797.401281
 20
476.32602
 30
0.0
  0
VERTEX
  5
58A
  8
0
 10
785.764043
 20
476.32602
 30
0.0
  0
VERTEX
  5
58B
  8
0
 10
779.945423
 20
466.247875
 30
0.0
  0
VERTEX
  5
58C
  8
0
 10
785.764043
 20
456.169731
 30
0.0
  0
SEQEND
  5
58D
  8
0
  0
LINE
  5
485
  8
0
 10
771.796445
 20
453.375811
 30
0.0
 11
820.983797
 21
453.375811
 31
0.0
  0
LINE
  5
486
  8
0
 10
771.796445
 20
527.552521
 30
0.0
 11
820.983797
 21
527.552521
 31
0.0
  0
LINE
  5
487
  8
0
 10
799.008025
 20
562.548833
 30
0.0
 11
809.806606
 21
562.548833
 31
0.0
  0
LINE
  5
488
  8
0
 10
820.259048
 20
535.52182
 30
0.0
 11
820.259048
 21
555.85762
 31
0.0
  0
LINE
  5
489
  8
0
 10
967.096348
 20
275.514167
 30
0.0
 11
960.251749
 21
298.870813
 31
0.0
  0
LINE
  5
48A
  8
0
 10
862.412537
 20
301.680633
 30
0.0
 11
862.412537
 21
206.094986
 31
0.0
  0
ARC
  5
48B
  8
0
 10
821.680465
 20
252.271639
 30
0.0
 40
183.272395
 50
7.285847
 51
37.235864
  0
LINE
  5
48C
  8
0
 10
1053.726531
 20
277.642129
 30
0.0
 11
1053.726531
 21
374.989095
 31
0.0
  0
LINE
  5
48D
  8
0
 10
1061.931185
 20
275.514167
 30
0.0
 11
1061.931185
 21
374.989095
 31
0.0
  0
LINE
  5
48E
  8
0
 10
1048.077565
 20
275.514167
 30
0.0
 11
1048.077565
 21
374.989095
 31
0.0
  0
LINE
  5
48F
  8
0
 10
1039.872911
 20
275.514167
 30
0.0
 11
1039.872911
 21
374.989095
 31
0.0
  0
LINE
  5
490
  8
0
 10
1020.759976
 20
275.514167
 30
0.0
 11
1020.759976
 21
313.958863
 31
0.0
  0
LINE
  5
491
  8
0
 10
1027.323699
 20
275.514167
 30
0.0
 11
1027.323699
 21
316.915779
 31
0.0
  0
LINE
  5
492
  8
0
 10
961.616376
 20
275.514167
 30
0.0
 11
1051.598569
 21
275.514167
 31
0.0
  0
LINE
  5
493
  8
0
 10
961.616376
 20
267.309513
 30
0.0
 11
1053.726531
 21
267.309513
 31
0.0
  0
LINE
  5
494
  8
0
 10
994.579695
 20
181.729442
 30
0.0
 11
969.500698
 21
267.309513
 31
0.0
  0
LINE
  5
495
  8
0
 10
862.412537
 20
262.944842
 30
0.0
 11
961.616376
 21
262.944842
 31
0.0
  0
LINE
  5
496
  8
0
 10
862.412537
 20
279.878839
 30
0.0
 11
961.616376
 21
279.878839
 31
0.0
  0
ARC
  5
497
  8
0
 10
852.853977
 20
206.094986
 30
0.0
 40
9.55856
 50
270.0
 51
0.0
  0
LINE
  5
498
  8
0
 10
961.616376
 20
279.878839
 30
0.0
 11
961.616376
 21
262.944842
 31
0.0
  0
LINE
  5
499
  8
0
 10
1010.093538
 20
128.78969
 30
0.0
 11
1010.093538
 21
0.0
 31
0.0
  0
LINE
  5
49A
  8
0
 10
1020.759976
 20
63.292417
 30
0.0
 11
1020.759976
 21
173.524788
 31
0.0
  0
LINE
  5
49B
  8
0
 10
1027.323699
 20
56.728694
 30
0.0
 11
1027.323699
 21
173.524788
 31
0.0
  0
LINE
  5
49C
  8
0
 10
1010.093538
 20
56.728694
 30
0.0
 11
1027.323699
 21
56.728694
 31
0.0
  0
LINE
  5
49D
  8
0
 10
1010.093538
 20
63.292417
 30
0.0
 11
1020.759976
 21
63.292417
 31
0.0
  0
LINE
  5
49E
  8
0
 10
1020.759976
 20
181.729442
 30
0.0
 11
1020.759976
 21
267.309513
 31
0.0
  0
LINE
  5
49F
  8
0
 10
1027.323699
 20
181.729442
 30
0.0
 11
1027.323699
 21
267.309513
 31
0.0
  0
LINE
  5
4A0
  8
0
 10
1048.077565
 20
181.729442
 30
0.0
 11
1048.077565
 21
267.309513
 31
0.0
  0
LINE
  5
4A1
  8
0
 10
1039.872911
 20
183.857403
 30
0.0
 11
1039.872911
 21
267.309513
 31
0.0
  0
LINE
  5
4A2
  8
0
 10
1010.093538
 20
128.78969
 30
0.0
 11
996.984045
 21
173.524788
 31
0.0
  0
ARC
  5
4A3
  8
0
 10
1039.872911
 20
181.729442
 30
0.0
 40
8.204654
 50
270.0
 51
0.0
  0
ARC
  5
4A4
  8
0
 10
1037.744949
 20
183.857403
 30
0.0
 40
2.127962
 50
270.0
 51
0.0
  0
ARC
  5
4A5
  8
0
 10
821.680465
 20
252.271639
 30
0.0
 40
183.272395
 50
339.185685
 51
4.706527
  0
ARC
  5
4A6
  8
0
 10
1053.726531
 20
275.514167
 30
0.0
 40
8.204654
 50
270.0
 51
0.0
  0
ARC
  5
4A7
  8
0
 10
1051.598569
 20
277.642129
 30
0.0
 40
2.127962
 50
270.0
 51
0.0
  0
LINE
  5
4A8
  8
0
 10
1373.118404
 20
592.0
 30
0.0
 11
1632.064466
 21
592.0
 31
0.0
  0
LINE
  5
4A9
  8
0
 10
1373.118404
 20
342.0
 30
0.0
 11
1632.064466
 21
342.0
 31
0.0
  0
LINE
  5
4AA
  8
0
 10
982.481969
 20
381.021085
 30
0.0
 11
1205.059911
 21
381.021085
 31
0.0
  0
LINE
  5
4AB
  8
0
 10
1020.759976
 20
313.958863
 30
0.0
 11
924.642769
 21
408.288715
 31
0.0
  0
LINE
  5
4AC
  8
0
 10
1027.323699
 20
316.915779
 30
0.0
 11
931.206493
 21
411.245632
 31
0.0
  0
LINE
  5
4AD
  8
0
 10
906.187187
 20
406.865346
 30
0.0
 11
906.187187
 21
532.236337
 31
0.0
  0
LINE
  5
4AE
  8
0
 10
931.206493
 20
411.245632
 30
0.0
 11
931.206493
 21
530.381822
 31
0.0
  0
LINE
  5
4AF
  8
0
 10
924.642769
 20
408.288715
 30
0.0
 11
924.642769
 21
530.381822
 31
0.0
  0
LINE
  5
4B0
  8
0
 10
917.858768
 20
527.552521
 30
0.0
 11
917.858768
 21
453.375811
 31
0.0
  0
LINE
  5
4B1
  8
0
 10
906.187187
 20
453.375811
 30
0.0
 11
917.858768
 21
453.375811
 31
0.0
  0
ARC
  5
4B2
  8
0
 62
     1
 10
821.680465
 20
252.271639
 30
0.0
 40
183.272395
 50
37.235864
 51
62.541952
  0
ARC
  5
4B3
  8
0
 10
852.853977
 20
301.680633
 30
0.0
 40
9.55856
 50
0.0
 51
90.0
  0
ARC
  5
4B4
  8
0
 10
982.223554
 20
366.101799
 30
0.0
 40
14.921524
 50
89.007685
 51
149.161495
  0
ARC
  5
4B5
  8
0
 10
982.223554
 20
366.101799
 30
0.0
 40
14.921524
 50
178.780344
 51
191.333922
  0
LINE
  5
4B6
  8
0
 10
906.187187
 20
527.552521
 30
0.0
 11
917.858768
 21
527.552521
 31
0.0
  0
CIRCLE
  5
4B7
  8
0
 10
895.421753
 20
589.697359
 30
0.0
 40
18.925279
  0
CIRCLE
  5
4B8
  8
0
 10
895.421753
 20
589.697359
 30
0.0
 40
27.148526
  0
ARC
  5
4B9
  8
0
 10
927.924631
 20
530.381822
 30
0.0
 40
3.281862
 50
0.0
 51
180.0
  0
ARC
  5
4BA
  8
0
 10
1043.975238
 20
374.989095
 30
0.0
 40
4.102327
 50
0.0
 51
180.0
  0
ARC
  5
4BB
  8
0
 10
1057.828858
 20
374.989095
 30
0.0
 40
4.102327
 50
0.0
 51
180.0
  0
LINE
  5
4BC
  8
0
 10
1280.000005
 20
346.138581
 30
0.0
 11
1373.118404
 21
346.138581
 31
0.0
  0
LINE
  5
4BD
  8
0
 10
1280.000005
 20
587.86142
 30
0.0
 11
1373.118404
 21
587.86142
 31
0.0
  0
LINE
  5
4BE
  8
0
 62
     8
 10
1228.725203
 20
310.296944
 30
0.0
 11
1228.725203
 21
623.703057
 31
0.0
  0
LINE
  5
4BF
  8
0
 10
1205.059911
 20
348.92372
 30
0.0
 11
1205.059911
 21
611.287306
 31
0.0
  0
LINE
  5
4C0
  8
0
 10
1214.726718
 20
310.296944
 30
0.0
 11
1214.726718
 21
623.703057
 31
0.0
  0
LINE
  5
4C1
  8
0
 62
     8
 10
1260.045201
 20
304.778839
 30
0.0
 11
1260.045201
 21
629.221162
 31
0.0
  0
LINE
  5
4C2
  8
0
 10
1280.000005
 20
304.778839
 30
0.0
 11
1280.000005
 21
629.221162
 31
0.0
  0
LINE
  5
4C3
  8
0
 10
1214.726718
 20
310.296944
 30
0.0
 11
1260.045201
 21
310.296944
 31
0.0
  0
LINE
  5
4C4
  8
0
 10
1214.726718
 20
310.296944
 30
0.0
 11
1167.837637
 21
381.021085
 31
0.0
  0
LINE
  5
4C5
  8
0
 10
1205.059911
 20
348.92372
 30
0.0
 11
1214.726718
 21
322.712694
 31
0.0
  0
LINE
  5
4C6
  8
0
 10
1260.045201
 20
304.778839
 30
0.0
 11
1280.000005
 21
304.778839
 31
0.0
  0
LINE
  5
4C7
  8
0
 10
1214.726718
 20
623.703057
 30
0.0
 11
1247.265846
 21
623.703057
 31
0.0
  0
LINE
  5
4C8
  8
0
 10
1175.225637
 20
555.85762
 30
0.0
 11
1205.059911
 21
555.85762
 31
0.0
  0
LINE
  5
4C9
  8
0
 10
1175.225637
 20
535.52182
 30
0.0
 11
1205.059911
 21
535.52182
 31
0.0
  0
LINE
  5
4CA
  8
0
 10
1149.77877
 20
559.277723
 30
0.0
 11
1175.225637
 21
559.277723
 31
0.0
  0
LINE
  5
4CB
  8
0
 10
1149.77877
 20
521.077171
 30
0.0
 11
1149.77877
 21
559.277723
 31
0.0
  0
LINE
  5
4CC
  8
0
 10
1175.225637
 20
521.077171
 30
0.0
 11
1175.225637
 21
559.277723
 31
0.0
  0
LINE
  5
4CD
  8
0
 10
1205.059911
 20
611.287306
 30
0.0
 11
1214.726718
 21
611.287306
 31
0.0
  0
CIRCLE
  5
4CE
  8
0
 10
1257.720662
 20
656.369688
 30
0.0
 40
18.925279
  0
LINE
  5
4CF
  8
0
 10
1247.265846
 20
629.221162
 30
0.0
 11
1280.000005
 21
629.221162
 31
0.0
  0
CIRCLE
  5
4D0
  8
0
 10
1257.720662
 20
656.369688
 30
0.0
 40
27.148526
  0
LINE
  5
4D1
  8
0
 10
1247.265846
 20
623.703057
 30
0.0
 11
1247.265846
 21
629.221162
 31
0.0
  0
LINE
  5
4D2
  8
0
 62
     8
 10
1373.118404
 20
342.0
 30
0.0
 11
1373.118404
 21
592.0
 31
0.0
  0
LINE
  5
4D3
  8
0
 62
     8
 10
1622.397659
 20
592.0
 30
0.0
 11
1622.397659
 21
342.0
 31
0.0
  0
LINE
  5
4D4
  8
0
 10
1632.064466
 20
592.0
 30
0.0
 11
1632.064466
 21
342.0
 31
0.0
  0
LINE
  5
4D5
  8
0
 10
1671.000005
 20
357.686532
 30
0.0
 11
1671.000005
 21
576.313469
 31
0.0
  0
LINE
  5
4D6
  8
0
 10
1671.000005
 20
357.686532
 30
0.0
 11
1632.064466
 21
342.0
 31
0.0
  0
LINE
  5
4D7
  8
0
 10
1671.000005
 20
576.313469
 30
0.0
 11
1632.064466
 21
592.0
 31
0.0
  0
ENDBLK
  5
4D9
  8
0
  0
ENDSEC
  0
SECTION
  2
ENTITIES
  0
INSERT
  5
211
  8
0
  2
A$C6CA3203F
 10
191.020879
 20
302.16428
 30
0.0
  0
TEXT
  8
0
  40
30
  5
58F
  62
5
  72
0
  71
0
 10
-112.582
 20
60.9288
 30
0.000000
  1
3477765
  0
TEXT
  8
0
  40
30
  5
590
  62
5
  72
0
  71
0
 10
808.048
 20
60.9288
 30
0.000000
  1
P 200 P/G t.c.
  0
TEXT
  8
0
  40
30
  5
591
  62
5
  72
0
  71
0
 10
1443.38
 20
60.9288
 30
0.000000
  1
1:1
  0
LINE
  5
36C
  8
CONTORNO_PAGINA
 62
   150
 10
-381.153812
 20
2795.156749
 30
0.0
 11
1614.646188
 21
2795.156749
 31
0.0
  0
LINE
  5
36D
  8
CONTORNO_PAGINA
 62
     5
 10
-351.153812
 20
2765.156749
 30
0.0
 11
1584.646188
 21
2765.156749
 31
0.0
  0
LINE
  5
36E
  8
CONTORNO_PAGINA
 62
   150
 10
-381.153812
 20
24.2093
 30
0.0
 11
-381.153812
 21
2795.156749
 31
0.0
  0
LINE
  5
36F
  8
CONTORNO_PAGINA
 62
     5
 10
-351.153812
 20
54.2093
 30
0.0
 11
-351.153812
 21
2765.156749
 31
0.0
  0
LINE
  5
370
  8
CONTORNO_PAGINA
 62
   150
 10
1614.646188
 20
24.2093
 30
0.0
 11
1614.646188
 21
2795.156749
 31
0.0
  0
LINE
  5
371
  8
CONTORNO_PAGINA
 62
     5
 10
1584.646188
 20
54.2093
 30
0.0
 11
1584.646188
 21
2765.156749
 31
0.0
  0
LINE
  5
372
  8
LAYER1
 62
   150
 10
-351.153812
 20
166.230926
 30
0.0
 11
1584.646188
 21
166.230926
 31
0.0
  0
LINE
  5
373
  8
LAYER1
 62
     4
 10
-351.153812
 20
221.523656
 30
0.0
 11
1584.646188
 21
221.523656
 31
0.0
  0
TEXT
  8
0
  40
25
  5
592
  62
5
  72
0
  71
0
 10
224.001
 20
176.316
 30
0.000000
  1
Denominazione commerciale
  7
SIMPLEX_INCLINATO
  0
LINE
  5
375
  8
LAYER1
 62
     4
 10
206.979115
 20
54.2093
 30
0.0
 11
206.979115
 21
221.523656
 31
0.0
  0
TEXT
  8
0
  40
25
  5
593
  62
5
  72
0
  71
0
 10
-334.132
 20
176.316
 30
0.000000
  1
Codice n.
  7
SIMPLEX_INCLINATO
  0
LINE
  5
377
  8
LAYER1
 62
     4
 10
1299.836192
 20
54.2093
 30
0.0
 11
1299.836192
 21
221.523656
 31
0.0
  0
TEXT
  8
0
  40
25
  5
594
  62
5
  72
0
  71
0
 10
1316.86
 20
176.316
 30
0.000000
  1
scala
  7
SIMPLEX_INCLINATO
  0
LINE
  5
379
  8
CONTORNO_PAGINA
 62
   150
 10
-381.153812
 20
24.2093
 30
0.0
 11
1614.646188
 21
24.2093
 31
0.0
  0
LINE
  5
37A
  8
CONTORNO_PAGINA
 62
     5
 10
-351.153812
 20
54.2093
 30
0.0
 11
1584.646188
 21
54.2093
 31
0.0
  0
INSERT
  5
440
  8
0
  2
A$C4ED54A06
 10
-216.883362
 20
1925.743276
 30
0.0
  0
INSERT
  5
4DA
  8
0
  2
A$C3A1B7C56
 10
-216.883362
 20
1103.374362
 30
0.0
  0
ENDSEC
  0
EOF
