  0
SECTION
  2
HEADER
  9
$ACADVER
  1
AC1014
  9
$ACADMAINTVER
 70
     9
  9
$DWGCODEPAGE
  3
ANSI_1252
  9
$INSBASE
 10
111219.9938856673
 20
36982.24291437385
 30
0.0
  9
$EXTMIN
 10
111219.8938856673
 20
36982.14291437385
 30
0.0
  9
$EXTMAX
 10
117160.0938856673
 20
41182.34291437385
 30
0.0
  9
$LIMMIN
 10
0.0
 20
0.0
  9
$LIMMAX
 10
12.0
 20
9.0
  9
$ORTHOMODE
 70
     0
  9
$REGENMODE
 70
     1
  9
$FILLMODE
 70
     1
  9
$QTEXTMODE
 70
     0
  9
$MIRRTEXT
 70
     1
  9
$DRAGMODE
 70
     2
  9
$LTSCALE
 40
5.0
  9
$OSMODE
 70
   255
  9
$ATTMODE
 70
     1
  9
$TEXTSIZE
 40
10.0
  9
$TRACEWID
 40
0.05
  9
$TEXTSTYLE
  7
PPP
  9
$CLAYER
  8
LINEA-SPESSA
  9
$CELTYPE
  6
BYLAYER
  9
$CECOLOR
 62
   256
  9
$CELTSCALE
 40
1.0
  9
$DELOBJ
 70
     1
  9
$DISPSILH
 70
     0
  9
$DIMSCALE
 40
1.0
  9
$DIMASZ
 40
0.18
  9
$DIMEXO
 40
0.0625
  9
$DIMDLI
 40
0.38
  9
$DIMRND
 40
0.0
  9
$DIMDLE
 40
0.0
  9
$DIMEXE
 40
0.18
  9
$DIMTP
 40
0.0
  9
$DIMTM
 40
0.0
  9
$DIMTXT
 40
0.18
  9
$DIMCEN
 40
0.09
  9
$DIMTSZ
 40
0.0
  9
$DIMTOL
 70
     0
  9
$DIMLIM
 70
     0
  9
$DIMTIH
 70
     1
  9
$DIMTOH
 70
     1
  9
$DIMSE1
 70
     0
  9
$DIMSE2
 70
     0
  9
$DIMTAD
 70
     0
  9
$DIMZIN
 70
     0
  9
$DIMBLK
  1

  9
$DIMASO
 70
     1
  9
$DIMSHO
 70
     1
  9
$DIMPOST
  1

  9
$DIMAPOST
  1

  9
$DIMALT
 70
     0
  9
$DIMALTD
 70
     2
  9
$DIMALTF
 40
25.4
  9
$DIMLFAC
 40
1.0
  9
$DIMTOFL
 70
     0
  9
$DIMTVP
 40
0.0
  9
$DIMTIX
 70
     0
  9
$DIMSOXD
 70
     0
  9
$DIMSAH
 70
     0
  9
$DIMBLK1
  1

  9
$DIMBLK2
  1

  9
$DIMSTYLE
  2
STANDARD
  9
$DIMCLRD
 70
     0
  9
$DIMCLRE
 70
     0
  9
$DIMCLRT
 70
     0
  9
$DIMTFAC
 40
1.0
  9
$DIMGAP
 40
0.09
  9
$DIMJUST
 70
     0
  9
$DIMSD1
 70
     0
  9
$DIMSD2
 70
     0
  9
$DIMTOLJ
 70
     1
  9
$DIMTZIN
 70
     0
  9
$DIMALTZ
 70
     0
  9
$DIMALTTZ
 70
     0
  9
$DIMFIT
 70
     3
  9
$DIMUPT
 70
     0
  9
$DIMUNIT
 70
     2
  9
$DIMDEC
 70
     4
  9
$DIMTDEC
 70
     4
  9
$DIMALTU
 70
     2
  9
$DIMALTTD
 70
     2
  9
$DIMTXSTY
  7
STANDARD
  9
$DIMAUNIT
 70
     0
  9
$LUNITS
 70
     2
  9
$LUPREC
 70
     4
  9
$SKETCHINC
 40
0.1
  9
$FILLETRAD
 40
0.2
  9
$AUNITS
 70
     0
  9
$AUPREC
 70
     0
  9
$MENU
  1
.
  9
$ELEVATION
 40
0.0
  9
$PELEVATION
 40
0.0
  9
$THICKNESS
 40
0.0
  9
$LIMCHECK
 70
     0
  9
$BLIPMODE
 70
     0
  9
$CHAMFERA
 40
0.0
  9
$CHAMFERB
 40
0.0
  9
$CHAMFERC
 40
1.0
  9
$CHAMFERD
 40
0.0
  9
$SKPOLY
 70
     0
  9
$TDCREATE
 40
2451217.402450578
  9
$TDUPDATE
 40
2453098.750951724
  9
$TDINDWG
 40
2.6783592245
  9
$TDUSRTIMER
 40
2.6783592245
  9
$USRTIMER
 70
     1
  9
$ANGBASE
 50
0.0
  9
$ANGDIR
 70
     0
  9
$PDMODE
 70
     0
  9
$PDSIZE
 40
0.0
  9
$PLINEWID
 40
0.0
  9
$COORDS
 70
     0
  9
$SPLFRAME
 70
     0
  9
$SPLINETYPE
 70
     6
  9
$SPLINESEGS
 70
     8
  9
$ATTDIA
 70
     0
  9
$ATTREQ
 70
     1
  9
$HANDLING
 70
     1
  9
$HANDSEED
  5
3D3
  9
$SURFTAB1
 70
     6
  9
$SURFTAB2
 70
     6
  9
$SURFTYPE
 70
     6
  9
$SURFU
 70
     6
  9
$SURFV
 70
     6
  9
$UCSNAME
  2

  9
$UCSORG
 10
0.0
 20
0.0
 30
0.0
  9
$UCSXDIR
 10
1.0
 20
0.0
 30
0.0
  9
$UCSYDIR
 10
0.0
 20
1.0
 30
0.0
  9
$PUCSNAME
  2

  9
$PUCSORG
 10
0.0
 20
0.0
 30
0.0
  9
$PUCSXDIR
 10
1.0
 20
0.0
 30
0.0
  9
$PUCSYDIR
 10
0.0
 20
1.0
 30
0.0
  9
$USERI1
 70
     0
  9
$USERI2
 70
     0
  9
$USERI3
 70
     0
  9
$USERI4
 70
     0
  9
$USERI5
 70
     0
  9
$USERR1
 40
0.0
  9
$USERR2
 40
0.0
  9
$USERR3
 40
0.0
  9
$USERR4
 40
0.0
  9
$USERR5
 40
0.0
  9
$WORLDVIEW
 70
     1
  9
$SHADEDGE
 70
     3
  9
$SHADEDIF
 70
    70
  9
$TILEMODE
 70
     1
  9
$MAXACTVP
 70
    48
  9
$PINSBASE
 10
0.0
 20
0.0
 30
0.0
  9
$PLIMCHECK
 70
     0
  9
$PEXTMIN
 10
1.000000000000000E+20
 20
1.000000000000000E+20
 30
1.000000000000000E+20
  9
$PEXTMAX
 10
-1.000000000000000E+20
 20
-1.000000000000000E+20
 30
-1.000000000000000E+20
  9
$PLIMMIN
 10
0.0
 20
0.0
  9
$PLIMMAX
 10
12.0
 20
9.0
  9
$UNITMODE
 70
     0
  9
$VISRETAIN
 70
     1
  9
$PLINEGEN
 70
     0
  9
$PSLTSCALE
 70
     1
  9
$TREEDEPTH
 70
  3020
  9
$PICKSTYLE
 70
     1
  9
$CMLSTYLE
  2
STANDARD
  9
$CMLJUST
 70
     0
  9
$CMLSCALE
 40
1.0
  9
$PROXYGRAPHICS
 70
     1
  9
$MEASUREMENT
 70
     0
  0
ENDSEC
  0
SECTION
  2
CLASSES
  0
CLASS
  1
LWPOLYLINE
  2
AcDbPolyline
  3
AutoCAD 2000
 90
        0
280
     0
281
     1
  0
CLASS
  1
HATCH
  2
AcDbHatch
  3
AutoCAD 2000
 90
        0
280
     0
281
     1
  0
CLASS
  1
IMAGEDEF
  2
AcDbRasterImageDef
  3
ISM
 90
        0
280
     0
281
     0
  0
CLASS
  1
ACDBDICTIONARYWDFLT
  2
AcDbDictionaryWithDefault
  3
AutoCAD 2000
 90
        0
280
     0
281
     0
  0
CLASS
  1
ACDBPLACEHOLDER
  2
AcDbPlaceHolder
  3
AutoCAD 2000
 90
        0
280
     0
281
     0
  0
CLASS
  1
LAYOUT
  2
AcDbLayout
  3
AutoCAD 2000
 90
        0
280
     0
281
     0
  0
CLASS
  1
RASTERVARIABLES
  2
AcDbRasterVariables
  3
ISM
 90
        0
280
     0
281
     0
  0
CLASS
  1
IMAGEDEF_REACTOR
  2
AcDbRasterImageDefReactor
  3
ISM
 90
        1
280
     0
281
     0
  0
CLASS
  1
IMAGE
  2
AcDbRasterImage
  3
ISM
 90
      127
280
     0
281
     1
  0
CLASS
  1
DICTIONARYVAR
  2
AcDbDictionaryVar
  3
AutoCAD 2000
 90
        0
280
     0
281
     0
  0
CLASS
  1
SORTENTSTABLE
  2
AcDbSortentsTable
  3
AutoCAD 2000
 90
        0
280
     0
281
     0
  0
CLASS
  1
LONG_TRANSACTION
  2
AcDbLongTransaction
  3
AutoCAD 2000
 90
        0
280
     0
281
     0
  0
CLASS
  1
LWPOLYLINE
  2
AcDbPolyline
  3
AutoCAD 2000
 90
        0
280
     0
281
     1
  0
CLASS
  1
HATCH
  2
AcDbHatch
  3
AutoCAD 2000
 90
        0
280
     0
281
     1
  0
CLASS
  1
XRECORD
  2
AcDbXrecord
  3
AutoCAD 2000
 90
        0
280
     0
281
     0
  0
ENDSEC
  0
SECTION
  2
TABLES
  0
TABLE
  2
VPORT
  5
1B
330
0
100
AcDbSymbolTable
 70
     2
  0
VPORT
  5
3AB
330
1B
100
AcDbSymbolTableRecord
100
AcDbViewportTableRecord
  2
*ACTIVE
 70
     0
 10
0.0
 20
0.0
 11
1.0
 21
1.0
 12
114805.41167343
 22
39084.99684287157
 13
0.0
 23
0.0
 14
0.5
 24
0.5
 15
0.5
 25
0.5
 16
0.0
 26
0.0
 36
1.0
 17
0.0
 27
0.0
 37
0.0
 40
4602.361308675972
 41
2.10272536687631
 42
50.0
 43
0.0
 44
0.0
 50
0.0
 51
0.0
 71
     0
 72
   100
 73
     1
 74
     3
 75
     0
 76
     0
 77
     0
 78
     0
  0
ENDTAB
  0
TABLE
  2
LTYPE
  5
16
330
0
100
AcDbSymbolTable
 70
     1
  0
LTYPE
  5
17
330
16
100
AcDbSymbolTableRecord
100
AcDbLinetypeTableRecord
  2
BYBLOCK
 70
     0
  3

 72
    65
 73
     0
 40
0.0
  0
LTYPE
  5
18
330
16
100
AcDbSymbolTableRecord
100
AcDbLinetypeTableRecord
  2
BYLAYER
 70
     0
  3

 72
    65
 73
     0
 40
0.0
  0
LTYPE
  5
A
330
16
100
AcDbSymbolTableRecord
100
AcDbLinetypeTableRecord
  2
CONTINUOUS
 70
     0
  3
Solid line
 72
    65
 73
     0
 40
0.0
  0
ENDTAB
  0
TABLE
  2
LAYER
  5
12
330
0
100
AcDbSymbolTable
 70
     4
  0
LAYER
  5
6
330
12
100
AcDbSymbolTableRecord
100
AcDbLayerTableRecord
  2
0
 70
     0
 62
     7
  6
CONTINUOUS
  0
LAYER
  5
3E
330
12
100
AcDbSymbolTableRecord
100
AcDbLayerTableRecord
  2
SIMB-RIELLO
 70
     0
 62
     1
  6
CONTINUOUS
  0
LAYER
  5
2A
330
12
100
AcDbSymbolTableRecord
100
AcDbLayerTableRecord
  2
CART
 70
     0
 62
   150
  6
CONTINUOUS
  0
LAYER
  5
25
330
12
100
AcDbSymbolTableRecord
100
AcDbLayerTableRecord
  2
LINEA-SPESSA
 70
     0
 62
     7
  6
CONTINUOUS
  0
ENDTAB
  0
TABLE
  2
STYLE
  5
13
330
0
100
AcDbSymbolTable
 70
     3
  0
STYLE
  5
14
330
13
100
AcDbSymbolTableRecord
100
AcDbTextStyleTableRecord
  2
STANDARD
 70
     0
 40
0.0
 41
1.0
 50
0.0
 71
     0
 42
10.0
  3
romans.shx
  4

  0
STYLE
  5
2B
330
13
100
AcDbSymbolTableRecord
100
AcDbTextStyleTableRecord
  2
SIMPLEX_INCLINATO
 70
     0
 40
2.0
 41
1.0
 50
15.0
 71
     0
 42
89.95247795954492
  3
simplex.shx
  4

  0
STYLE
  5
26
330
13
100
AcDbSymbolTableRecord
100
AcDbTextStyleTableRecord
  2
PPP
 70
     0
 40
0.0
 41
1.0
 50
0.0
 71
     0
 42
10.0
  3
swissl.ttf
  4

1001
ACAD
1000
Swis721 Lt BT
1071
       34
  0
ENDTAB
  0
TABLE
  2
VIEW
  5
19
330
0
100
AcDbSymbolTable
 70
     0
  0
ENDTAB
  0
TABLE
  2
UCS
  5
1A
330
0
100
AcDbSymbolTable
 70
     0
  0
ENDTAB
  0
TABLE
  2
APPID
  5
1D
330
0
100
AcDbSymbolTable
 70
     2
  0
APPID
  5
1E
330
1D
100
AcDbSymbolTableRecord
100
AcDbRegAppTableRecord
  2
ACAD
 70
     0
  0
APPID
  5
3CF
330
1D
100
AcDbSymbolTableRecord
100
AcDbRegAppTableRecord
  2
CONTENTBLOCKICON
 70
     0
  0
ENDTAB
  0
TABLE
  2
DIMSTYLE
  5
1F
330
0
100
AcDbSymbolTable
 70
     1
  0
DIMSTYLE
105
20
330
1F
100
AcDbSymbolTableRecord
100
AcDbDimStyleTableRecord
  2
STANDARD
 70
     0
  3

  4

  5

  6

  7

 40
1.0
 41
0.18
 42
0.0625
 43
0.38
 44
0.18
 45
0.0
 46
0.0
 47
0.0
 48
0.0
140
0.18
141
0.09
142
0.0
143
25.4
144
1.0
145
0.0
146
1.0
147
0.09
 71
     0
 72
     0
 73
     1
 74
     1
 75
     0
 76
     0
 77
     0
 78
     0
170
     0
171
     2
172
     0
173
     0
174
     0
175
     0
176
     0
177
     0
178
     0
270
     2
271
     4
272
     4
273
     2
274
     2
340
14
275
     0
280
     0
281
     0
282
     0
283
     1
284
     0
285
     0
286
     0
287
     3
288
     0
  0
ENDTAB
  0
TABLE
  2
BLOCK_RECORD
  5
1
330
0
100
AcDbSymbolTable
 70
     5
  0
BLOCK_RECORD
  5
2
102
{ACAD_XDICTIONARY
360
3
102
}
330
1
100
AcDbSymbolTableRecord
100
AcDbBlockTableRecord
  2
*MODEL_SPACE
  0
BLOCK_RECORD
  5
E
102
{ACAD_XDICTIONARY
360
3CD
102
}
330
1
100
AcDbSymbolTableRecord
100
AcDbBlockTableRecord
  2
*PAPER_SPACE
  0
BLOCK_RECORD
  5
2D
330
1
100
AcDbSymbolTableRecord
100
AcDbBlockTableRecord
  2
CART-R-A2
  0
BLOCK_RECORD
  5
F9
330
1
100
AcDbSymbolTableRecord
100
AcDbBlockTableRecord
  2
RS300EBLUL
1001
CONTENTBLOCKICON
1071
        0
1004
2800000020000000200000000100080000000000000400000000000000000000000000000000000000000000000080000080000000808000800000008000800080800000C0C0C000C0DCC000F0CAA6000020400000206000002080000020A0000020C0000020E00000400000004020000040400000406000004080000040A0
1004
000040C0000040E00000600000006020000060400000606000006080000060A0000060C0000060E00000800000008020000080400000806000008080000080A0000080C0000080E00000A0000000A0200000A0400000A0600000A0800000A0A00000A0C00000A0E00000C0000000C0200000C0400000C0600000C0800000C0
1004
A00000C0C00000C0E00000E0000000E0200000E0400000E0600000E0800000E0A00000E0C00000E0E00040000000400020004000400040006000400080004000A0004000C0004000E00040200000402020004020400040206000402080004020A0004020C0004020E000404000004040200040404000404060004040800040
1004
40A0004040C0004040E00040600000406020004060400040606000406080004060A0004060C0004060E00040800000408020004080400040806000408080004080A0004080C0004080E00040A0000040A0200040A0400040A0600040A0800040A0A00040A0C00040A0E00040C0000040C0200040C0400040C0600040C08000
1004
40C0A00040C0C00040C0E00040E0000040E0200040E0400040E0600040E0800040E0A00040E0C00040E0E00080000000800020008000400080006000800080008000A0008000C0008000E00080200000802020008020400080206000802080008020A0008020C0008020E00080400000804020008040400080406000804080
1004
008040A0008040C0008040E00080600000806020008060400080606000806080008060A0008060C0008060E00080800000808020008080400080806000808080008080A0008080C0008080E00080A0000080A0200080A0400080A0600080A0800080A0A00080A0C00080A0E00080C0000080C0200080C0400080C0600080C0
1004
800080C0A00080C0C00080C0E00080E0000080E0200080E0400080E0600080E0800080E0A00080E0C00080E0E000C0000000C0002000C0004000C0006000C0008000C000A000C000C000C000E000C0200000C0202000C0204000C0206000C0208000C020A000C020C000C020E000C0400000C0402000C0404000C0406000C0
1004
408000C040A000C040C000C040E000C0600000C0602000C0604000C0606000C0608000C060A000C060C000C060E000C0800000C0802000C0804000C0806000C0808000C080A000C080C000C080E000C0A00000C0A02000C0A04000C0A06000C0A08000C0A0A000C0A0C000C0A0E000C0C00000C0C02000C0C04000C0C06000
1004
C0C08000C0C0A000F0FBFF00A4A0A000808080000000FF0000FF000000FFFF00FF000000FF00FF00FFFF0000FFFFFF0000000000000000000000000000000000000000000000000000000000000000000000000000000000000000000000000000000000000000000000000000000000000000000000000000000000000000
1004
00000000000000000000000000000000000000000000000000000000000000000000000000000000000000000000000000000000000000000000000000000000000000000000000000000000000000000000000000000000000000000000000000000000000000000000000000000000000000000000000000000000000000
1004
000000000000000000000000000000000000000000000000000000000000000000000000000000000000000000000000000000000000000000000000000000000000000000000000000000000000000000000000000000FFFFFFFFFFFF0000000000000000000000000000000000000000000000000000FFFFFFFFFFFFFF00
1004
0000000000000000000000000000000000000000000000FFFF0000FFFF0000FF0000000000000000000000000000000000000000000000FF0000FF0000FF00FFFF000000000000000000000000000000000000000000FFFFFFFF00000000FFFFFF0000000000FFFF0000000000000000000000000000FFFFFF0000000000FF
1004
FFFF0000FFFFFFFFFFFFFF0000000000000000000000FFFFFF00FF00000000FFFFFF0000FFFFFFFFFFFFFF000000FFFF0000000000FFFFFFFF0000FFFFFFFF00FFFFFFFFFFFFFFFFFFFFFFFFFFFFFFFFFFFFFF0000FFFFFFFFFFFF000000FFFFFF000000FFFF00FF00FFFF000000FFFFFFFFFF000000FFFF0000FFFFFFFFFF
1004
FFFFFFFFFFFFFFFF00FFFFFF000000FFFFFFFFFF000000FFFFFF000000FF0000000000FFFFFFFFFFFFFFFFFF000000FFFFFFFFFF00000000FFFFFF00000000000000FFFFFFFFFFFFFFFFFFFFFFFFFFFFFFFFFFFF00000000FFFFFFFFFFFFFFFFFFFFFFFFFFFFFFFFFFFFFFFF000000000000000000000000000000FFFFFFFF
1004
FFFFFF00000000FF0000000000000000000000000000000000000000000000000000000000000000000000000000000000000000000000000000000000000000000000000000000000000000000000000000000000000000000000000000000000000000000000000000000000000000000000000000000000000000000000
1004
00000000000000000000000000000000000000000000000000000000000000000000000000000000000000000000000000000000000000000000000000000000000000000000000000000000000000000000000000000000000000000000000000000000000000000000000000000000000000000000000000000000000000
1004
0000000000000000000000000000000000000000000000000000000000000000000000000000000000000000000000000000000000000000
  0
BLOCK_RECORD
  5
48
330
1
100
AcDbSymbolTableRecord
100
AcDbBlockTableRecord
  2
RS300EBLUR
1001
CONTENTBLOCKICON
1071
        0
1004
2800000020000000200000000100080000000000000400000000000000000000000000000000000000000000000080000080000000808000800000008000800080800000C0C0C000C0DCC000F0CAA6000020400000206000002080000020A0000020C0000020E00000400000004020000040400000406000004080000040A0
1004
000040C0000040E00000600000006020000060400000606000006080000060A0000060C0000060E00000800000008020000080400000806000008080000080A0000080C0000080E00000A0000000A0200000A0400000A0600000A0800000A0A00000A0C00000A0E00000C0000000C0200000C0400000C0600000C0800000C0
1004
A00000C0C00000C0E00000E0000000E0200000E0400000E0600000E0800000E0A00000E0C00000E0E00040000000400020004000400040006000400080004000A0004000C0004000E00040200000402020004020400040206000402080004020A0004020C0004020E000404000004040200040404000404060004040800040
1004
40A0004040C0004040E00040600000406020004060400040606000406080004060A0004060C0004060E00040800000408020004080400040806000408080004080A0004080C0004080E00040A0000040A0200040A0400040A0600040A0800040A0A00040A0C00040A0E00040C0000040C0200040C0400040C0600040C08000
1004
40C0A00040C0C00040C0E00040E0000040E0200040E0400040E0600040E0800040E0A00040E0C00040E0E00080000000800020008000400080006000800080008000A0008000C0008000E00080200000802020008020400080206000802080008020A0008020C0008020E00080400000804020008040400080406000804080
1004
008040A0008040C0008040E00080600000806020008060400080606000806080008060A0008060C0008060E00080800000808020008080400080806000808080008080A0008080C0008080E00080A0000080A0200080A0400080A0600080A0800080A0A00080A0C00080A0E00080C0000080C0200080C0400080C0600080C0
1004
800080C0A00080C0C00080C0E00080E0000080E0200080E0400080E0600080E0800080E0A00080E0C00080E0E000C0000000C0002000C0004000C0006000C0008000C000A000C000C000C000E000C0200000C0202000C0204000C0206000C0208000C020A000C020C000C020E000C0400000C0402000C0404000C0406000C0
1004
408000C040A000C040C000C040E000C0600000C0602000C0604000C0606000C0608000C060A000C060C000C060E000C0800000C0802000C0804000C0806000C0808000C080A000C080C000C080E000C0A00000C0A02000C0A04000C0A06000C0A08000C0A0A000C0A0C000C0A0E000C0C00000C0C02000C0C04000C0C06000
1004
C0C08000C0C0A000F0FBFF00A4A0A000808080000000FF0000FF000000FFFF00FF000000FF00FF00FFFF0000FFFFFF00000000000000000000000000000000000000000000000000000000000000000000000000000000000000000000FFFFFFFFFFFFFF000000000000000000000000000000000000000000000000FFFFFF
1004
FFFFFFFFFFFF0000000000000000000000000000000000000000000000FF000000FF000000FFFFFFFFFFFFFF0000000000000000000000000000000000FF000000FF000000FFFFFFFFFFFFFF0000000000000000000000000000000000FF000000FF000000FFFFFFFFFFFFFFFF00000000000000000000000000000000FF00
1004
0000FF000000FFFFFFFFFFFFFFFF00000000000000000000000000000000FF000000FF000000FF0000000000FFFF000000000000000000FFFFFFFFFFFFFFFF000000FF000000FF0000000000FFFF0000000000000000FFFFFFFFFFFFFFFFFF000000FF000000FF0000000000FFFF0000000000000000FFFFFFFFFFFFFFFFFF
1004
000000FF000000FF0000000000FFFF0000000000000000FFFFFFFF000000FFFF000000FF000000FF0000000000FFFF0000000000000000FFFFFFFFFFFFFFFFFFFFFFFFFFFFFFFFFFFFFFFFFFFFFFFF0000000000000000FFFFFFFFFF000000000000000000000000000000FF00FFFF0000000000000000FFFFFFFFFF00FFFF
1004
FFFFFFFFFFFFFFFFFFFFFF00FFFFFFFF0000000000000000FFFFFFFFFF00FF0000000000000000000000FF00FFFFFFFF000000000000000000FFFFFFFF00FFFFFFFFFFFFFFFFFFFFFFFFFF00FFFFFFFF00000000000000000000FF00FF00FFFFFFFFFFFFFFFFFFFFFFFFFF00FF00FFFF00000000000000000000FFFFFFFFFF
1004
FFFFFFFFFFFFFFFFFFFFFFFFFFFFFFFFFF00000000000000000000FF00FF000000000000000000000000000000FF00FFFF00000000000000000000FF00FF000000000000000000000000000000FF00FF0000000000000000000000FF00FF000000000000000000000000000000FF00FF0000000000000000000000FF00FF00
1004
0000000000000000000000000000FF00FF0000000000000000000000FF00FF00000000FFFFFFFFFFFFFF00000000FF00FF0000000000000000000000FF00FF000000FFFFFFFFFFFFFFFFFF000000FF00FF0000000000000000000000FFFFFF000000FFFF0000000000FFFF000000FFFFFF000000000000000000000000FFFF
1004
000000FFFFFFFFFFFFFFFFFF000000FFFF00000000000000000000000000FFFFFFFFFFFFFFFFFFFFFFFFFFFFFFFFFFFFFF0000000000000000000000000000FF000000000000000000000000000000FF000000000000000000000000000000FFFFFFFFFFFFFFFFFFFFFFFFFFFFFFFFFF000000000000000000000000000000
1004
0000000000000000000000000000000000000000000000000000000000000000000000000000000000000000000000000000000000000000
  0
BLOCK_RECORD
  5
1CE
330
1
100
AcDbSymbolTableRecord
100
AcDbBlockTableRecord
  2
RS300EBLUU
1001
CONTENTBLOCKICON
1071
        0
1004
2800000020000000200000000100080000000000000400000000000000000000000000000000000000000000000080000080000000808000800000008000800080800000C0C0C000C0DCC000F0CAA6000020400000206000002080000020A0000020C0000020E00000400000004020000040400000406000004080000040A0
1004
000040C0000040E00000600000006020000060400000606000006080000060A0000060C0000060E00000800000008020000080400000806000008080000080A0000080C0000080E00000A0000000A0200000A0400000A0600000A0800000A0A00000A0C00000A0E00000C0000000C0200000C0400000C0600000C0800000C0
1004
A00000C0C00000C0E00000E0000000E0200000E0400000E0600000E0800000E0A00000E0C00000E0E00040000000400020004000400040006000400080004000A0004000C0004000E00040200000402020004020400040206000402080004020A0004020C0004020E000404000004040200040404000404060004040800040
1004
40A0004040C0004040E00040600000406020004060400040606000406080004060A0004060C0004060E00040800000408020004080400040806000408080004080A0004080C0004080E00040A0000040A0200040A0400040A0600040A0800040A0A00040A0C00040A0E00040C0000040C0200040C0400040C0600040C08000
1004
40C0A00040C0C00040C0E00040E0000040E0200040E0400040E0600040E0800040E0A00040E0C00040E0E00080000000800020008000400080006000800080008000A0008000C0008000E00080200000802020008020400080206000802080008020A0008020C0008020E00080400000804020008040400080406000804080
1004
008040A0008040C0008040E00080600000806020008060400080606000806080008060A0008060C0008060E00080800000808020008080400080806000808080008080A0008080C0008080E00080A0000080A0200080A0400080A0600080A0800080A0A00080A0C00080A0E00080C0000080C0200080C0400080C0600080C0
1004
800080C0A00080C0C00080C0E00080E0000080E0200080E0400080E0600080E0800080E0A00080E0C00080E0E000C0000000C0002000C0004000C0006000C0008000C000A000C000C000C000E000C0200000C0202000C0204000C0206000C0208000C020A000C020C000C020E000C0400000C0402000C0404000C0406000C0
1004
408000C040A000C040C000C040E000C0600000C0602000C0604000C0606000C0608000C060A000C060C000C060E000C0800000C0802000C0804000C0806000C0808000C080A000C080C000C080E000C0A00000C0A02000C0A04000C0A06000C0A08000C0A0A000C0A0C000C0A0E000C0C00000C0C02000C0C04000C0C06000
1004
C0C08000C0C0A000F0FBFF00A4A0A000808080000000FF0000FF000000FFFF00FF000000FF00FF00FFFF0000FFFFFF0000000000000000000000000000000000000000000000000000000000000000000000000000000000000000000000000000000000000000000000000000000000000000000000000000000000000000
1004
00000000000000000000000000000000000000000000000000000000000000000000000000000000000000000000000000000000FFFFFFFFFFFFFFFFFFFF000000000000000000000000000000000000000000FFFFFFFFFFFFFFFFFFFFFFFF000000FF00000000000000000000000000000000FFFF00000000000000FFFFFF
1004
FFFFFFFFFFFFFFFFFF0000000000000000000000FFFF0000000000000000000000FFFFFFFFFFFFFFFFFFFFFFFFFFFFFFFF0000FFFFFF000000000000FFFFFFFFFFFFFFFF000000FFFF000000FFFFFFFFFF0000FFFFFF0000000000FFFFFFFFFFFFFFFFFFFFFFFFFFFF000000FFFFFFFFFF0000FFFFFF0000000000FFFFFFFF
1004
FFFFFFFFFF000000FFFF000000FFFFFFFFFF000000FFFF0000000000000000000000FFFFFFFFFFFFFFFFFFFFFFFFFFFFFFFF000000FFFF0000000000000000FFFFFFFFFFFFFFFFFFFFFF0000000000000000000000FFFFFFFFFFFFFFFFFFFFFFFFFFFFFF0000FFFF0000000000000000000000000000FFFFFFFFFFFFFFFF00
1004
00FFFFFFFFFFFF0000000000000000000000000000000000000000FFFFFFFF000000000000FFFF000000000000000000000000000000000000000000FFFFFF000000000000FF00000000000000000000000000000000000000000000FF000000000000000000FF000000000000000000000000000000000000000000FF0000
1004
00000000000000FFFF0000000000000000000000000000000000000000FF00000000000000000000FF0000000000000000000000000000000000000000FF00000000000000000000FF0000000000000000000000000000000000000000FF00000000000000000000FF0000000000000000000000000000000000000000FF00
1004
0000000000000000FFFF0000000000000000000000000000000000000000FF000000000000000000FF000000000000000000000000000000000000000000FF000000000000000000FF000000000000000000000000000000000000000000FF000000000000000000FF000000000000000000000000000000000000000000FF
1004
FF0000000000000000FF00000000000000000000000000000000000000000000FFFFFFFFFFFFFFFFFF0000000000000000000000000000000000000000000000000000000000000000000000000000000000000000000000000000000000000000000000000000000000000000000000000000000000000000000000000000
1004
0000000000000000000000000000000000000000000000000000000000000000000000000000000000000000000000000000000000000000
  0
BLOCK_RECORD
  5
2BB
330
1
100
AcDbSymbolTableRecord
100
AcDbBlockTableRecord
  2
RS300EBLUU1
1001
CONTENTBLOCKICON
1071
        0
1004
2800000020000000200000000100080000000000000400000000000000000000000000000000000000000000000080000080000000808000800000008000800080800000C0C0C000C0DCC000F0CAA6000020400000206000002080000020A0000020C0000020E00000400000004020000040400000406000004080000040A0
1004
000040C0000040E00000600000006020000060400000606000006080000060A0000060C0000060E00000800000008020000080400000806000008080000080A0000080C0000080E00000A0000000A0200000A0400000A0600000A0800000A0A00000A0C00000A0E00000C0000000C0200000C0400000C0600000C0800000C0
1004
A00000C0C00000C0E00000E0000000E0200000E0400000E0600000E0800000E0A00000E0C00000E0E00040000000400020004000400040006000400080004000A0004000C0004000E00040200000402020004020400040206000402080004020A0004020C0004020E000404000004040200040404000404060004040800040
1004
40A0004040C0004040E00040600000406020004060400040606000406080004060A0004060C0004060E00040800000408020004080400040806000408080004080A0004080C0004080E00040A0000040A0200040A0400040A0600040A0800040A0A00040A0C00040A0E00040C0000040C0200040C0400040C0600040C08000
1004
40C0A00040C0C00040C0E00040E0000040E0200040E0400040E0600040E0800040E0A00040E0C00040E0E00080000000800020008000400080006000800080008000A0008000C0008000E00080200000802020008020400080206000802080008020A0008020C0008020E00080400000804020008040400080406000804080
1004
008040A0008040C0008040E00080600000806020008060400080606000806080008060A0008060C0008060E00080800000808020008080400080806000808080008080A0008080C0008080E00080A0000080A0200080A0400080A0600080A0800080A0A00080A0C00080A0E00080C0000080C0200080C0400080C0600080C0
1004
800080C0A00080C0C00080C0E00080E0000080E0200080E0400080E0600080E0800080E0A00080E0C00080E0E000C0000000C0002000C0004000C0006000C0008000C000A000C000C000C000E000C0200000C0202000C0204000C0206000C0208000C020A000C020C000C020E000C0400000C0402000C0404000C0406000C0
1004
408000C040A000C040C000C040E000C0600000C0602000C0604000C0606000C0608000C060A000C060C000C060E000C0800000C0802000C0804000C0806000C0808000C080A000C080C000C080E000C0A00000C0A02000C0A04000C0A06000C0A08000C0A0A000C0A0C000C0A0E000C0C00000C0C02000C0C04000C0C06000
1004
C0C08000C0C0A000F0FBFF00A4A0A000808080000000FF0000FF000000FFFF00FF000000FF00FF00FFFF0000FFFFFF0000000000000000000000000000000000000000000000000000000000000000000000000000000000000000000000000000000000000000000000000000000000000000000000000000000000000000
1004
00000000000000000000000000000000000000000000000000000000000000000000000000000000000000000000000000000000000000000000FFFFFFFFFFFFFFFFFF00000000000000000000000000000000000000000000FF000000000000000000FF000000000000000000000000000000000000000000FF0000000000
1004
00000000FF000000000000000000000000000000000000000000FF000000000000000000FF000000000000000000000000000000000000000000FF000000000000000000FF0000000000000000000000000000000000000000FFFF000000000000000000FF0000000000000000000000000000000000000000FF0000000000
1004
0000000000FF0000000000000000000000000000000000000000FF00000000000000000000FF0000000000000000000000000000000000000000FF00000000000000000000FF000000000000000000000000000000000000000000FFFF0000000000000000FF00000000000000000000000000000000000000000000FF0000
1004
000000000000FF00000000000000000000000000000000000000000000FF00000000000000FFFF0000000000000000000000000000000000FFFFFFFFFFFFFFFF00000000FF000000000000000000000000000000000000FFFFFFFFFFFFFFFFFFFF000000FF0000000000000000000000000000000000FFFFFFFFFFFFFFFFFF
1004
FFFFFFFF00FFFFFF0000FFFF0000000000000000000000FFFF00000000000000FFFFFFFFFFFFFFFFFFFFFFFFFFFFFFFFFF000000000000FFFF000000000000FFFFFFFFFFFFFFFFFFFFFFFFFF000000FFFFFFFFFF0000FFFFFF0000000000FFFFFFFFFFFFFFFFFF00FF00FFFF000000FFFFFFFFFF0000FFFFFF0000000000FF
1004
FFFFFFFFFFFFFFFFFFFFFFFFFF000000FFFFFFFFFF0000FFFFFF000000000000FFFFFFFFFFFFFFFFFFFFFFFFFF000000FFFFFFFFFF000000FFFF0000000000000000FFFFFFFFFFFFFFFFFFFFFFFFFFFFFFFFFFFF00000000FFFF000000FFFFFFFFFFFFFFFFFF0000FFFFFFFFFF0000000000000000000000FFFFFFFFFFFFFF
1004
FFFF0000FFFFFF00000000000000000000000000000000000000000000FFFFFFFFFF000000000000000000000000000000000000000000000000000000000000000000000000000000000000000000000000000000000000000000000000000000000000000000000000000000000000000000000000000000000000000000
1004
0000000000000000000000000000000000000000000000000000000000000000000000000000000000000000000000000000000000000000
  0
ENDTAB
  0
ENDSEC
  0
SECTION
  2
BLOCKS
  0
BLOCK
  5
5
330
2
100
AcDbEntity
  8
0
100
AcDbBlockBegin
  2
*MODEL_SPACE
 70
     2
 10
0.0
 20
0.0
 30
0.0
  3
*MODEL_SPACE
  1

  0
ENDBLK
  5
B
330
2
100
AcDbEntity
  8
0
100
AcDbBlockEnd
  0
BLOCK
  5
F
330
E
100
AcDbEntity
 67
     1
  8
0
100
AcDbBlockBegin
  2
*PAPER_SPACE
 70
     0
 10
0.0
 20
0.0
 30
0.0
  3
*PAPER_SPACE
  1

  0
ENDBLK
  5
10
330
E
100
AcDbEntity
 67
     1
  8
0
100
AcDbBlockEnd
  0
BLOCK
  5
44
330
2D
100
AcDbEntity
  8
0
100
AcDbBlockBegin
  2
CART-R-A2
 70
     2
 10
0.0
 20
0.0
 30
0.0
  3
CART-R-A2
  1

  0
LINE
  5
2E
330
2D
100
AcDbEntity
  8
CART
100
AcDbLine
 10
4675.507022504788
 20
197.3143560261842
 30
0.0
 11
5899.999999999999
 21
197.3143560261842
 31
0.0
  0
LINE
  5
2F
330
2D
100
AcDbEntity
  8
CART
100
AcDbLine
 10
4675.507022504788
 20
142.0216267714595
 30
0.0
 11
5899.999999999999
 21
142.0216267714595
 31
0.0
  0
TEXT
  5
30
330
2D
100
AcDbEntity
  8
CART
 62
     8
100
AcDbText
 10
4724.742277381795
 20
157.1679913988218
 30
0.0
 40
25.0
  1
codice n.
  7
SIMPLEX_INCLINATO
 72
     1
 11
4808.075610715129
 21
169.6679913988218
 31
0.0
100
AcDbText
 73
     2
  0
TEXT
  5
31
330
2D
100
AcDbEntity
  8
CART
 62
     8
100
AcDbText
 10
5080.938630529565
 20
157.1679913988218
 30
0.0
 40
25.0
  1
denominazione commerciale
  7
SIMPLEX_INCLINATO
 72
     1
 11
5345.224344815279
 21
169.6679913988218
 31
0.0
100
AcDbText
 73
     2
  0
TEXT
  5
32
330
2D
100
AcDbEntity
  8
CART
 62
     8
100
AcDbText
 10
5780.854626304925
 20
157.1679913988218
 30
0.0
 40
25.0
  1
scala
  7
SIMPLEX_INCLINATO
 72
     1
 11
5824.902245352544
 21
169.6679913988218
 31
0.0
100
AcDbText
 73
     2
  0
LINE
  5
33
330
2D
100
AcDbEntity
  8
CART
100
AcDbLine
 10
354.2497517629744
 20
4002.685643973816
 30
0.0
 11
354.2497517629744
 21
4160.0
 31
0.0
  0
LINE
  5
34
330
2D
100
AcDbEntity
  8
CART
100
AcDbLine
 10
39.99999999999997
 20
4002.685643973816
 30
0.0
 11
354.2497517629744
 21
4002.685643973816
 31
0.0
  0
LWPOLYLINE
  5
35
330
2D
100
AcDbEntity
  8
CART
100
AcDbPolyline
 90
        4
 70
     1
 43
5.0
 10
5900.0
 20
4160.0
 10
40.0
 20
4160.0
 10
40.0
 20
40.00000000000045
 10
5899.999999999999
 20
40.0
  0
LWPOLYLINE
  5
36
330
2D
100
AcDbEntity
  8
CART
100
AcDbPolyline
 90
        5
 70
     1
 43
0.2
 10
5940.0
 20
4200.0
 10
5940.0
 20
4200.0
 10
0.0
 20
4200.0
 10
0.0
 20
0.0000000000004547
 10
5940.0
 20
0.0
  0
LINE
  5
37
330
2D
100
AcDbEntity
  8
CART
100
AcDbLine
 10
4675.507022504788
 20
39.99999999999909
 30
0.0
 11
4675.507022504788
 21
197.3143560261842
 31
0.0
  0
LINE
  5
38
330
2D
100
AcDbEntity
  8
CART
100
AcDbLine
 10
4940.64419892547
 20
39.99999999999909
 30
0.0
 11
4940.64419892547
 21
197.3143560261842
 31
0.0
  0
LINE
  5
39
330
2D
100
AcDbEntity
  8
CART
100
AcDbLine
 10
5749.804490705089
 20
39.99999999999909
 30
0.0
 11
5749.804490705089
 21
197.3143560261842
 31
0.0
  0
TEXT
  5
3A
330
2D
100
AcDbEntity
  8
CART
 62
     7
100
AcDbText
 10
5807.759388209687
 20
78.51081338572931
 30
0.0
 40
25.0
  1
1:1
 41
0.8
 51
15.0
  7
SIMPLEX_INCLINATO
 72
     1
 11
5824.902245352544
 21
91.0108133857293
 31
0.0
100
AcDbText
 73
     2
  0
ATTDEF
  5
3B
330
2D
100
AcDbEntity
  8
CART
 62
     7
100
AcDbText
 10
5345.224344815278
 20
81.0108133857293
 30
0.0
 40
20.0
  1

 51
15.0
  7
SIMPLEX_INCLINATO
 72
     1
 11
5345.224344815278
 21
91.0108133857293
 31
0.0
100
AcDbAttributeDefinition
  3
denominazione
  2
DENOMINAZIONE
 70
     0
 74
     2
  0
ATTDEF
  5
3C
330
2D
100
AcDbEntity
  8
CART
 62
     7
100
AcDbText
 10
4808.075610715129
 20
78.51081338572931
 30
0.0
 40
25.0
  1

 51
15.0
  7
SIMPLEX_INCLINATO
 72
     1
 11
4808.075610715129
 21
91.0108133857293
 31
0.0
100
AcDbAttributeDefinition
  3
codice
  2
COD
 70
     0
 74
     2
  0
HATCH
  5
3D
330
2D
100
AcDbEntity
  8
SIMB-RIELLO
100
AcDbHatch
 10
0.0
 20
0.0
 30
0.0
210
0.0
220
0.0
230
1.0
  2
SOLID
 70
     1
 71
     0
 91
        1
 92
        7
 72
     0
 73
     1
 93
        3
 10
142.9478404672922
 20
4098.256279585189
 10
102.4563532618976
 20
4098.256279585192
 10
142.9478404672922
 20
4057.764792379798
 97
        0
 75
     0
 76
     1
 47
0.008020346143228
 98
        1
 10
132.5393285438646
 20
4084.58097770861
  0
HATCH
  5
3F
330
2D
100
AcDbEntity
  8
SIMB-RIELLO
100
AcDbHatch
 10
0.0
 20
0.0
 30
0.0
210
0.0
220
0.0
230
1.0
  2
SOLID
 70
     1
 71
     0
 91
        7
 92
        7
 72
     1
 73
     1
 93
       12
 10
179.3601278732089
 20
4092.612483905123
 42
-0.4196614604291923
 10
184.4005880045178
 20
4088.365809373689
 42
0.0
 10
184.4005880045178
 20
4082.625080647511
 42
-0.2974902999392861
 10
179.3601278732089
 20
4077.825938864906
 42
0.0
 10
190.1370761365292
 20
4055.829624085705
 42
0.0
 10
200.5244212129936
 20
4055.829624085705
 42
0.0
 10
189.7474729496748
 20
4077.436819499612
 42
0.3186908506564043
 10
195.7202497417706
 20
4088.850994417919
 42
0.375587932791305
 10
182.6061711412594
 20
4100.451256376083
 42
0.0
 10
168.235124144754
 20
4100.451256376083
 42
0.0
 10
168.235124144754
 20
4055.829624085705
 42
0.0
 10
179.3601278732071
 20
4055.829624085705
 42
0.0
 97
        0
 92
        7
 72
     0
 73
     1
 93
        4
 10
211.625848562701
 20
4100.451256376083
 10
200.5244212129971
 20
4100.451256376083
 10
200.5244212129955
 20
4055.829624085705
 10
211.625848562701
 20
4055.829624085707
 97
        0
 92
        7
 72
     0
 73
     1
 93
       12
 10
227.4666170099175
 20
4074.3238622875
 10
237.3346368379142
 20
4074.3238622875
 10
237.3346368379142
 20
4082.495373865303
 10
227.4666170099126
 20
4082.495373865304
 10
227.4666170099126
 20
4092.22336388561
 10
238.1136910796712
 20
4092.223363885611
 10
238.1136910796676
 20
4100.451256376083
 10
216.9493853137882
 20
4100.451256376083
 10
216.9493853137882
 20
4055.829624085705
 10
239.2822724423048
 20
4055.829624085705
 10
239.2822724423048
 20
4064.984991632488
 10
227.4666170099144
 20
4064.984991632489
 97
        0
 92
        7
 72
     0
 73
     1
 93
        6
 10
259.8362633155752
 20
4065.244404869793
 10
252.4352485864701
 20
4065.244404869793
 10
252.4352485864683
 20
4100.451256376083
 10
241.6583321430912
 20
4100.451256376083
 10
241.6583321430894
 20
4055.829624085705
 10
259.8362633155734
 20
4055.829624085705
 97
        0
 92
        7
 72
     0
 73
     1
 93
        6
 10
280.0916730336584
 20
4065.374111324891
 10
272.6906577369704
 20
4065.374111324891
 10
272.6906577369704
 20
4100.451256376083
 10
262.0435836672154
 20
4100.451256376083
 10
262.0435836672154
 20
4055.829624085705
 10
280.0916730336566
 20
4055.829624085705
 97
        0
 92
        7
 72
     1
 73
     1
 93
        8
 10
308.371192621777
 20
4067.190003004691
 42
0.0
 10
308.371192621777
 20
4089.758940257421
 42
0.2577399339603656
 10
299.4562060291334
 20
4100.451256376083
 42
0.0
 10
289.006659626295
 20
4100.451256376083
 42
0.2577399339598106
 10
280.0916730336566
 20
4089.758940257452
 42
0.0
 10
280.0916730336584
 20
4067.190003004697
 42
0.3015054834347943
 10
291.2443774919383
 20
4055.829624085705
 42
0.0
 10
297.2184881634971
 20
4055.829624085705
 42
0.3015054834346608
 97
        0
 92
       22
 72
     1
 73
     1
 93
        4
 10
290.7387471034116
 20
4068.616774992115
 42
0.0
 10
290.7387471034116
 20
4088.591581507295
 42
-0.9070612246060122
 10
297.7241185520219
 20
4088.591581507322
 42
0.0
 10
297.7241185520219
 20
4068.616774992087
 42
-0.9070612246023385
 97
        0
 75
     0
 76
     1
 47
0.0163601992298996
 98
       12
 10
178.2775151671832
 20
4085.300625145348
 10
206.8195369805791
 20
4074.608563972257
 10
223.0726323255102
 20
4065.10450963252
 10
244.0827316843947
 20
4063.12449835263
 10
280.9495099546304
 20
4061.144487072741
 10
175.5025961590424
 20
4080.944600525856
 10
206.8195369805791
 20
4069.856536965943
 10
219.5048798826271
 20
4067.480523299232
 10
245.6683996890464
 20
4062.728496292917
 10
268.6605834861657
 20
4065.10450963252
 10
295.6169378624927
 20
4060.352482626206
 10
295.6169378624927
 20
4060.352482626206
  0
HATCH
  5
40
330
2D
100
AcDbEntity
  8
SIMB-RIELLO
 62
     7
100
AcDbHatch
 10
0.0
 20
0.0
 30
0.0
210
0.0
220
0.0
230
1.0
  2
SOLID
 70
     1
 71
     0
 91
        2
 92
       16
 93
        1
 72
     2
 10
122.7020968645958
 20
4078.010535982494
 40
28.6318051832633
 50
-0.0000000000000127
 51
360.0
 73
     1
 97
        0
 92
        1
 93
        1
 72
     2
 10
122.7020968645958
 20
4078.010535982494
 40
30.96831521445249
 50
-0.0000000000000127
 51
360.0
 73
     1
 97
        0
 75
     0
 76
     1
 98
        1
 10
-10199.26938929792
 20
-104.5864413116505
  0
HATCH
  5
41
330
2D
100
AcDbEntity
  8
SIMB-RIELLO
 62
     7
100
AcDbHatch
 10
0.0
 20
0.0
 30
0.0
210
0.0
220
0.0
230
1.0
  2
SOLID
 70
     1
 71
     0
 91
        2
 92
       16
 93
        1
 72
     2
 10
122.7020968645958
 20
4078.010535982494
 40
32.11707291624153
 50
-0.0000000000000127
 51
360.0
 73
     1
 97
        0
 92
        1
 93
        1
 72
     2
 10
122.7020968645958
 20
4078.010535982494
 40
33.78219760665425
 50
-0.0000000000000127
 51
360.0
 73
     1
 97
        0
 75
     0
 76
     1
 98
        1
 10
-10199.26938929792
 20
-104.5864413116505
  0
HATCH
  5
42
330
2D
100
AcDbEntity
  8
SIMB-RIELLO
 62
     7
100
AcDbHatch
 10
0.0
 20
0.0
 30
0.0
210
0.0
220
0.0
230
1.0
  2
SOLID
 70
     1
 71
     0
 91
        2
 92
       16
 93
        1
 72
     2
 10
122.7020968645958
 20
4078.010535982494
 40
35.29055345577882
 50
-0.0000000000000127
 51
360.0
 73
     1
 97
        0
 92
        1
 93
        1
 72
     2
 10
122.7020968645958
 20
4078.010535982494
 40
36.48518414786595
 50
-0.0000000000000127
 51
360.0
 73
     1
 97
        0
 75
     0
 76
     1
 98
        1
 10
-10199.26938929792
 20
-104.5864413116505
  0
HATCH
  5
43
330
2D
100
AcDbEntity
  8
SIMB-RIELLO
 62
     7
100
AcDbHatch
 10
0.0
 20
0.0
 30
0.0
210
0.0
220
0.0
230
1.0
  2
SOLID
 70
     1
 71
     0
 91
        2
 92
        1
 93
        1
 72
     2
 10
122.7020968645958
 20
4078.010535982494
 40
39.25215794502382
 50
-0.0000000000000127
 51
360.0
 73
     1
 97
        0
 92
       16
 93
        1
 72
     2
 10
122.7020968645958
 20
4078.010535982494
 40
38.59096830138609
 50
-0.0000000000000127
 51
360.0
 73
     1
 97
        0
 75
     0
 76
     1
 98
        1
 10
-10199.26938929792
 20
-104.5864413116505
  0
ENDBLK
  5
45
330
2D
100
AcDbEntity
  8
0
100
AcDbBlockEnd
  0
BLOCK
  5
1CB
330
F9
100
AcDbEntity
  8
0
100
AcDbBlockBegin
  2
RS300EBLUL
 70
     0
 10
0.0
 20
0.0
 30
0.0
  3
RS300EBLUL
  1

  0
LINE
  5
FA
330
F9
100
AcDbEntity
  8
LINEA-SPESSA
100
AcDbLine
 10
-141.3332553856453
 20
133.910331836123
 30
0.0
 11
-250.6894940978672
 21
133.910331836123
 31
0.0
  0
LINE
  5
FB
330
F9
100
AcDbEntity
  8
LINEA-SPESSA
100
AcDbLine
 10
-250.6894940978672
 20
133.910331836123
 30
0.0
 11
-250.6894940978672
 21
-179.0896681638769
 31
0.0
  0
LINE
  5
FC
330
F9
100
AcDbEntity
  8
LINEA-SPESSA
100
AcDbLine
 10
-250.6894940978672
 20
-179.0896681638769
 30
0.0
 11
-141.3332553856453
 21
-179.0896681638769
 31
0.0
  0
LINE
  5
FD
330
F9
100
AcDbEntity
  8
LINEA-SPESSA
100
AcDbLine
 10
-141.3332553856453
 20
-179.0896681638769
 30
0.0
 11
-141.3332553856453
 21
133.910331836123
 31
0.0
  0
LINE
  5
FE
330
F9
100
AcDbEntity
  8
LINEA-SPESSA
100
AcDbLine
 10
-141.3332553856453
 20
133.910331836123
 30
0.0
 11
-90.31120359341731
 21
110.5306217398174
 31
0.0
  0
LINE
  5
FF
330
F9
100
AcDbEntity
  8
LINEA-SPESSA
100
AcDbLine
 10
-90.31120359341731
 20
110.5306217398174
 30
0.0
 11
-90.31120359341731
 21
-155.709958067564
 31
0.0
  0
LINE
  5
100
330
F9
100
AcDbEntity
  8
LINEA-SPESSA
100
AcDbLine
 10
-141.3332553856453
 20
-179.0896681638769
 30
0.0
 11
-90.31120359341731
 21
-155.709958067564
 31
0.0
  0
LINE
  5
101
330
F9
100
AcDbEntity
  8
LINEA-SPESSA
100
AcDbLine
 10
-69.0806726419687
 20
91.19803170896194
 30
0.0
 11
0.0000000001455192
 21
91.19803170904196
 31
0.0
  0
LINE
  5
102
330
F9
100
AcDbEntity
  8
LINEA-SPESSA
100
AcDbLine
 10
0.0000000001455192
 20
91.19803170904196
 30
0.0
 11
0.0
 21
51.98581661681965
 31
0.0
  0
LINE
  5
103
330
F9
100
AcDbEntity
  8
LINEA-SPESSA
100
AcDbLine
 10
-90.31120359341731
 20
100.9288834587641
 30
0.0
 11
-69.0806726419687
 21
100.9288834587641
 31
0.0
  0
LINE
  5
104
330
F9
100
AcDbEntity
  8
LINEA-SPESSA
100
AcDbLine
 10
-69.0806726419687
 20
100.9288834587641
 30
0.0
 11
-69.0806726419687
 21
-146.1082197865907
 31
0.0
  0
LINE
  5
105
330
F9
100
AcDbEntity
  8
LINEA-SPESSA
100
AcDbLine
 10
-90.31120359341731
 20
-146.1082197865107
 30
0.0
 11
-69.0806726419687
 21
-146.1082197865907
 31
0.0
  0
LINE
  5
106
330
F9
100
AcDbEntity
  8
LINEA-SPESSA
100
AcDbLine
 10
0.0
 20
71.06448349280253
 30
0.0
 11
-69.0806726419687
 21
71.06448349280253
 31
0.0
  0
LINE
  5
107
330
F9
100
AcDbEntity
  8
LINEA-SPESSA
100
AcDbLine
 10
0.0
 20
51.98581661674689
 30
0.0
 11
-69.0806726419687
 21
51.98581661681965
 31
0.0
  0
LINE
  5
108
330
F9
100
AcDbEntity
  8
LINEA-SPESSA
100
AcDbLine
 10
0.0
 20
19.07866687605564
 30
0.0
 11
-69.0806726419687
 21
19.07866687598288
 31
0.0
  0
LINE
  5
109
330
F9
100
AcDbEntity
  8
LINEA-SPESSA
100
AcDbLine
 10
0.0
 20
0.0
 30
0.0
 11
-69.0806726419687
 21
0.0
 31
0.0
  0
LINE
  5
10A
330
F9
100
AcDbEntity
  8
LINEA-SPESSA
100
AcDbLine
 10
0.0
 20
-45.17933632828499
 30
0.0
 11
-69.0806726419687
 21
-45.17933632828499
 31
0.0
  0
LINE
  5
10B
330
F9
100
AcDbEntity
  8
LINEA-SPESSA
100
AcDbLine
 10
0.0
 20
-64.25800320418784
 30
0.0
 11
-69.0806726419687
 21
-64.25800320426787
 31
0.0
  0
LINE
  5
10C
330
F9
100
AcDbEntity
  8
LINEA-SPESSA
100
AcDbLine
 10
0.0
 20
-97.16515294503189
 30
0.0
 11
-69.0806726419687
 21
-97.16515294503189
 31
0.0
  0
LINE
  5
10D
330
F9
100
AcDbEntity
  8
LINEA-SPESSA
100
AcDbLine
 10
0.0
 20
-116.2438198210147
 30
0.0
 11
-69.0806726419687
 21
-116.2438198210147
 31
0.0
  0
LINE
  5
10E
330
F9
100
AcDbEntity
  8
LINEA-SPESSA
100
AcDbLine
 10
0.0000000001455192
 20
-136.1006348354349
 30
0.0
 11
-69.0806726419687
 21
-136.1006348355076
 31
0.0
  0
LINE
  5
10F
330
F9
100
AcDbEntity
  8
LINEA-SPESSA
100
AcDbLine
 10
-0.0000000001600711
 20
19.07866687598288
 30
0.0
 11
-0.0000000001600711
 21
0.0
 31
0.0
  0
LINE
  5
110
330
F9
100
AcDbEntity
  8
LINEA-SPESSA
100
AcDbLine
 10
-0.0000000001600711
 20
-45.17933632828499
 30
0.0
 11
-0.0000000003055902
 21
-64.25800320426787
 31
0.0
  0
LINE
  5
111
330
F9
100
AcDbEntity
  8
LINEA-SPESSA
100
AcDbLine
 10
-0.0000000001600711
 20
-97.16515294503189
 30
0.0
 11
0.0
 21
-136.1006348354349
 31
0.0
  0
LINE
  5
112
330
F9
100
AcDbEntity
  8
LINEA-SPESSA
100
AcDbLine
 10
-10.62431514782656
 20
51.98581661674689
 30
0.0
 11
-10.62431514782656
 21
19.07866687605564
 31
0.0
  0
LINE
  5
113
330
F9
100
AcDbEntity
  8
LINEA-SPESSA
100
AcDbLine
 10
-10.62431514782656
 20
-97.16515294449346
 30
0.0
 11
-10.62431514782656
 21
-64.25800320380949
 31
0.0
  0
LINE
  5
114
330
F9
100
AcDbEntity
  8
LINEA-SPESSA
100
AcDbLine
 10
-10.62431514782656
 20
0.0
 30
0.0
 11
-10.62431514782656
 21
-45.17933632828499
 31
0.0
  0
LINE
  5
115
330
F9
100
AcDbEntity
  8
LINEA-SPESSA
100
AcDbLine
 10
-250.6894940978672
 20
130.799284418259
 30
0.0
 11
-476.2991442305356
 21
130.799284418259
 31
0.0
  0
LINE
  5
116
330
F9
100
AcDbEntity
  8
LINEA-SPESSA
100
AcDbLine
 10
-521.0
 20
133.910331836123
 30
0.0
 11
-476.2991442305356
 21
133.910331836123
 31
0.0
  0
LINE
  5
117
330
F9
100
AcDbEntity
  8
LINEA-SPESSA
100
AcDbLine
 10
-476.2991442305356
 20
133.910331836123
 30
0.0
 11
-476.2991442305356
 21
-179.0896681638769
 31
0.0
  0
LINE
  5
118
330
F9
100
AcDbEntity
  8
LINEA-SPESSA
100
AcDbLine
 10
-476.2991442305356
 20
-179.0896681638769
 30
0.0
 11
-520.9999999998545
 21
-179.0896681638769
 31
0.0
  0
LINE
  5
119
330
F9
100
AcDbEntity
  8
LINEA-SPESSA
100
AcDbLine
 10
-250.6894940978672
 20
-175.9786207460128
 30
0.0
 11
-476.2991442305356
 21
-175.9786207460128
 31
0.0
  0
LINE
  5
11A
330
F9
100
AcDbEntity
  8
LINEA-SPESSA
100
AcDbLine
 10
-520.9999999998545
 20
198.3492992959727
 30
0.0
 11
-520.9999999998545
 21
-243.5286356237265
 31
0.0
  0
LINE
  5
11B
330
F9
100
AcDbEntity
  8
LINEA-SPESSA
100
AcDbLine
 10
-520.9999999998545
 20
198.3492992959727
 30
0.0
 11
-544.4632842216233
 21
198.3492992959727
 31
0.0
  0
LINE
  5
11C
330
F9
100
AcDbEntity
  8
LINEA-SPESSA
100
AcDbLine
 10
-520.9999999998545
 20
-243.5286356237265
 30
0.0
 11
-544.4632842216233
 21
-243.5286356237265
 31
0.0
  0
LINE
  5
11D
330
F9
100
AcDbEntity
  8
LINEA-SPESSA
100
AcDbLine
 10
-544.4632842216233
 20
198.3492992959727
 30
0.0
 11
-544.4632842216233
 21
-243.5286356237265
 31
0.0
  0
ARC
  5
11E
330
F9
100
AcDbEntity
  8
LINEA-SPESSA
100
AcDbCircle
 10
-1393.566919400866
 20
-286.5528772138132
 30
0.0
 40
167.4020677068923
100
AcDbArc
 50
270.0
 51
90.0
  0
ARC
  5
11F
330
F9
100
AcDbEntity
  8
LINEA-SPESSA
100
AcDbCircle
 10
-1393.566919400866
 20
-286.5528772138132
 30
0.0
 40
274.6817788343713
100
AcDbArc
 50
270.0
 51
90.0
  0
ARC
  5
120
330
F9
100
AcDbEntity
  8
LINEA-SPESSA
100
AcDbCircle
 10
-1413.381478510084
 20
-288.341606012611
 30
0.0
 40
320.8711373714507
100
AcDbArc
 50
231.1726397210842
 51
21.17923735647952
  0
ARC
  5
121
330
F9
100
AcDbEntity
  8
LINEA-SPESSA
100
AcDbCircle
 10
-1388.434052549288
 20
-354.2017357362201
 30
0.0
 40
342.369116006708
100
AcDbArc
 50
90.85902206662598
 51
139.6264050202858
  0
ARC
  5
122
330
F9
100
AcDbEntity
  8
LINEA-SPESSA
100
AcDbCircle
 10
-1369.705184930571
 20
-386.7454763139758
 30
0.0
 40
377.9304192871167
100
AcDbArc
 50
137.7065801182661
 51
162.0788370177793
  0
ARC
  5
123
330
F9
100
AcDbEntity
  8
LINEA-SPESSA
100
AcDbCircle
 10
-1388.434052549288
 20
-218.9040186914062
 30
0.0
 40
342.369116006708
100
AcDbArc
 50
220.3735949797141
 51
269.140977933374
  0
ARC
  5
124
330
F9
100
AcDbEntity
  8
LINEA-SPESSA
100
AcDbCircle
 10
-1369.705184930571
 20
-186.3602781136578
 30
0.0
 40
377.9304192871167
100
AcDbArc
 50
197.9211629822206
 51
222.2934198817338
  0
ARC
  5
125
330
F9
100
AcDbEntity
  8
LINEA-SPESSA
100
AcDbCircle
 10
-1397.227779557899
 20
-263.0198708021343
 30
0.0
 40
350.3870247346539
100
AcDbArc
 50
183.8510492976789
 51
222.2748172842271
  0
ARC
  5
126
330
F9
100
AcDbEntity
  8
LINEA-SPESSA
100
AcDbCircle
 10
-1365.990317261777
 20
-388.9829562124578
 30
0.0
 40
274.9782502845103
100
AcDbArc
 50
137.1337293702755
 51
152.6244968762917
  0
ARC
  5
127
330
F9
100
AcDbEntity
  8
LINEA-SPESSA
100
AcDbCircle
 10
-1365.990317268486
 20
-184.1227982186683
 30
0.0
 40
274.9782502770216
100
AcDbArc
 50
207.3755031237082
 51
222.8662706297245
  0
ARC
  5
128
330
F9
100
AcDbEntity
  8
LINEA-SPESSA
100
AcDbCircle
 10
-1388.371362065591
 20
-218.8221253627125
 30
0.0
 40
235.1902137618522
100
AcDbArc
 50
220.3789010076242
 51
268.7341831960627
  0
ARC
  5
129
330
F9
100
AcDbEntity
  8
LINEA-SPESSA
100
AcDbCircle
 10
-1388.371362065591
 20
-354.283629065525
 30
0.0
 40
235.1902137624001
100
AcDbArc
 50
91.26581680393732
 51
139.6210989920582
  0
ARC
  5
12A
330
F9
100
AcDbEntity
  8
LINEA-SPESSA
100
AcDbCircle
 10
-1563.687742944428
 20
-286.5528772138132
 30
0.0
 40
52.3211642860866
100
AcDbArc
 50
152.6835047391753
 51
207.3164952608246
  0
ARC
  5
12B
330
F9
100
AcDbEntity
  8
LINEA-SPESSA
100
AcDbCircle
 10
-1679.516143464745
 20
-286.5528772138132
 30
0.0
 40
52.3211642860866
100
AcDbArc
 50
162.0788370177793
 51
197.9211629822206
  0
LINE
  5
12C
330
F9
100
AcDbEntity
  8
LINEA-SPESSA
100
AcDbLine
 10
-1616.008907230527
 20
-286.5528772138132
 30
0.0
 11
-1731.837307750829
 21
-286.5528772138132
 31
0.0
  0
LINE
  5
12D
330
F9
100
AcDbEntity
  8
LINEA-SPESSA
100
AcDbLine
 10
-1143.721657096874
 20
-172.4151335534188
 30
0.0
 11
-948.7449796722939
 21
-172.4151335534188
 31
0.0
  0
LINE
  5
12E
330
F9
100
AcDbEntity
  8
LINEA-SPESSA
100
AcDbLine
 10
-948.7449796722939
 20
-172.4151335534188
 30
0.0
 11
-907.0662600441282
 21
-145.6887262472882
 31
0.0
  0
LINE
  5
12F
330
F9
100
AcDbEntity
  8
LINEA-SPESSA
100
AcDbLine
 10
-907.0662600441282
 20
-145.6887262472882
 30
0.0
 11
-907.0662600442737
 21
83.09408364858246
 31
0.0
  0
LINE
  5
130
330
F9
100
AcDbEntity
  8
LINEA-SPESSA
100
AcDbLine
 10
-1731.837307750829
 20
-286.5528772138132
 30
0.0
 11
-1766.031784073784
 21
-286.5528772138132
 31
0.0
  0
ARC
  5
131
330
F9
100
AcDbEntity
  8
LINEA-SPESSA
100
AcDbCircle
 10
-1512.979937310548
 20
-362.4809567509291
 30
0.0
 40
264.1974837361495
100
AcDbArc
 50
141.8510089114306
 51
164.3052599333817
  0
ARC
  5
132
330
F9
100
AcDbEntity
  8
LINEA-SPESSA
100
AcDbCircle
 10
-1578.445076679694
 20
-99.06655802231398
 30
0.0
 40
269.2947402150668
100
AcDbArc
 50
170.0593210474607
 51
181.1583819606107
  0
ARC
  5
133
330
F9
100
AcDbEntity
  8
LINEA-SPESSA
100
AcDbCircle
 10
-1423.809993995033
 20
-89.48038231633109
 30
0.0
 40
421.5053406970275
100
AcDbArc
 50
144.7772382274019
 51
174.9774646271823
  0
ARC
  5
134
330
F9
100
AcDbEntity
  8
LINEA-SPESSA
100
AcDbCircle
 10
-1578.44507667057
 20
-99.06655802330352
 30
0.0
 40
258.8305073670186
100
AcDbArc
 50
187.9599065522834
 51
205.5822208413703
  0
LINE
  5
135
330
F9
100
AcDbEntity
  8
LINEA-SPESSA
100
AcDbLine
 10
-1811.90153935767
 20
-233.296722822779
 30
0.0
 11
-1811.90153935767
 21
-210.831094319561
 31
0.0
  0
LINE
  5
136
330
F9
100
AcDbEntity
  8
LINEA-SPESSA
100
AcDbLine
 10
-1845.821984347247
 20
-131.1484275711991
 30
0.0
 11
-1834.78180759841
 21
-134.9094362710238
 31
0.0
  0
ARC
  5
137
330
F9
100
AcDbEntity
  8
LINEA-SPESSA
100
AcDbCircle
 10
-1578.44507667057
 20
-99.06655802330352
 30
0.0
 40
269.2947402242359
100
AcDbArc
 50
209.8975551602676
 51
225.4609151565797
  0
ARC
  5
138
330
F9
100
AcDbEntity
  8
LINEA-SPESSA
100
AcDbCircle
 10
-1562.113093726424
 20
-112.2493130743896
 30
0.0
 40
261.8642677977618
100
AcDbArc
 50
178.085898615322
 51
215.2026007709597
  0
ARC
  5
139
330
F9
100
AcDbEntity
  8
LINEA-SPESSA
100
AcDbCircle
 10
-1322.783705938331
 20
-117.0495632922029
 30
0.0
 40
501.2306412415434
100
AcDbArc
 50
143.5890897633036
 51
178.4512715923297
  0
LINE
  5
13A
330
F9
100
AcDbEntity
  8
LINEA-SPESSA
100
AcDbLine
 10
-1768.144381691119
 20
153.6257296719559
 30
0.0
 11
-1768.144381691119
 21
175.3895646206437
 31
0.0
  0
ARC
  5
13B
330
F9
100
AcDbEntity
  8
LINEA-SPESSA
100
AcDbCircle
 10
-1655.691315815871
 20
121.5719604609403
 30
0.0
 40
124.6676643810705
100
AcDbArc
 50
135.7873076504759
 51
154.4252319636604
  0
LINE
  5
13C
330
F9
100
AcDbEntity
  8
LINEA-SPESSA
100
AcDbLine
 10
-1745.047631185647
 20
208.5057021598186
 30
0.0
 11
-1664.009534641547
 21
88.17588173283002
 31
0.0
  0
ARC
  5
13D
330
F9
100
AcDbEntity
  8
LINEA-SPESSA
100
AcDbCircle
 10
-1420.421194295078
 20
-864.4367804295397
 30
0.0
 40
1120.976313074125
100
AcDbArc
 50
89.13008624219262
 51
106.8335667198966
  0
ARC
  5
13E
330
F9
100
AcDbEntity
  8
LINEA-SPESSA
100
AcDbCircle
 10
-1392.711057801367
 20
-1113.518951767277
 30
0.0
 40
1369.971000816425
100
AcDbArc
 50
69.20841765370589
 51
90.447137082152
  0
ARC
  5
13F
330
F9
100
AcDbEntity
  8
LINEA-SPESSA
100
AcDbCircle
 10
-1401.937926023674
 20
-734.7410320801572
 30
0.0
 40
970.9421085148994
100
AcDbArc
 50
90.11236385173482
 51
109.5074768047892
  0
ARC
  5
140
330
F9
100
AcDbEntity
  8
LINEA-SPESSA
100
AcDbCircle
 10
-1390.372747881963
 20
-1306.337442209762
 30
0.0
 40
1542.595456892478
100
AcDbArc
 50
71.71578706965457
 51
90.50028957689841
  0
LINE
  5
141
330
F9
100
AcDbEntity
  8
LINEA-SPESSA
100
AcDbLine
 10
-1847.684781588366
 20
-104.5106748646867
 30
0.0
 11
-1734.529311714272
 21
-104.5106748649123
 31
0.0
  0
ARC
  5
142
330
F9
100
AcDbEntity
  8
LINEA-SPESSA
100
AcDbCircle
 10
-1531.030698912305
 20
-123.305285157483
 30
0.0
 40
204.3646808731404
100
AcDbArc
 50
174.7232779799441
 51
201.825416249365
  0
ARC
  5
143
330
F9
100
AcDbEntity
  8
LINEA-SPESSA
100
AcDbCircle
 10
-1361.352662493329
 20
-131.8387883505129
 30
0.0
 40
374.1759443236118
100
AcDbArc
 50
143.9849384246875
 51
175.8116469786032
  0
LINE
  5
144
330
F9
100
AcDbEntity
  8
LINEA-SPESSA
100
AcDbLine
 10
-1734.529311714272
 20
-104.5106748646867
 30
0.0
 11
-1625.626920300608
 21
-71.43606451286905
 31
0.0
  0
LINE
  5
145
330
F9
100
AcDbEntity
  8
LINEA-SPESSA
100
AcDbLine
 10
-1625.626920300608
 20
-71.43606451286905
 30
0.0
 11
-1596.199328745162
 21
-82.08006882509653
 31
0.0
  0
ARC
  5
146
330
F9
100
AcDbEntity
  8
LINEA-SPESSA
100
AcDbCircle
 10
-1388.434052549288
 20
-354.2017357362201
 30
0.0
 40
369.0757121981001
100
AcDbArc
 50
90.85902206662598
 51
129.9909973076802
  0
ARC
  5
147
330
F9
100
AcDbEntity
  8
LINEA-SPESSA
100
AcDbCircle
 10
-1338.745400478932
 20
-686.4595444649458
 30
0.0
 40
840.1528435311188
100
AcDbArc
 50
93.74131320969357
 51
112.7772030427469
  0
ARC
  5
148
330
F9
100
AcDbEntity
  8
LINEA-SPESSA
100
AcDbCircle
 10
-1293.924476463507
 20
-997.855299678522
 30
0.0
 40
1154.067709482853
100
AcDbArc
 50
70.60939500460702
 51
94.95309633037761
  0
LINE
  5
149
330
F9
100
AcDbEntity
  8
LINEA-SPESSA
100
AcDbLine
 10
-907.0662600441282
 20
43.88544748197455
 30
0.0
 11
-1044.152616228107
 21
43.88544748197455
 31
0.0
  0
LINE
  5
14A
330
F9
100
AcDbEntity
  8
LINEA-SPESSA
100
AcDbLine
 10
-1044.152616228107
 20
43.88544748197455
 30
0.0
 11
-1044.152616228107
 21
104.043986897137
 31
0.0
  0
LINE
  5
14B
330
F9
100
AcDbEntity
  8
LINEA-SPESSA
100
AcDbLine
 10
-1044.152616228107
 20
104.043986897137
 30
0.0
 11
-1030.204256213343
 21
125.6765972884386
 31
0.0
  0
ARC
  5
14C
330
F9
100
AcDbEntity
  8
LINEA-SPESSA
100
AcDbCircle
 10
-1393.566919400866
 20
-286.5528772138132
 30
0.0
 40
301.3883750257634
100
AcDbArc
 50
59.75375965115838
 51
90.0
  0
LINE
  5
14D
330
F9
100
AcDbEntity
  8
LINEA-SPESSA
100
AcDbLine
 10
-1241.752383124403
 20
-26.19293564089457
 30
0.0
 11
-1255.20495745138
 21
-49.26392443868826
 31
0.0
  0
ARC
  5
14E
330
F9
100
AcDbEntity
  8
LINEA-SPESSA
100
AcDbCircle
 10
-1152.633191368615
 20
-3157.47997116817
 30
0.0
 40
3132.554984226123
100
AcDbArc
 50
85.50386203209923
 51
91.63024835330224
  0
ARC
  5
14F
330
F9
100
AcDbEntity
  8
LINEA-SPESSA
100
AcDbCircle
 10
-1101.322262935325
 20
-3232.090413859936
 30
0.0
 40
3120.195192942478
100
AcDbArc
 50
86.43059134792933
 51
91.45842957646873
  0
LINE
  5
150
330
F9
100
AcDbEntity
  8
LINEA-SPESSA
100
AcDbLine
 10
-1707.650752940069
 20
-355.5471419219175
 30
0.0
 11
-1620.65940207745
 21
-598.9859716942592
 31
0.0
  0
LINE
  5
151
330
F9
100
AcDbEntity
  8
LINEA-SPESSA
100
AcDbLine
 10
-1649.568150257721
 20
-440.3447706734005
 30
0.0
 11
-1596.024453594058
 21
-590.1828261606933
 31
0.0
  0
LINE
  5
152
330
F9
100
AcDbEntity
  8
LINEA-SPESSA
100
AcDbLine
 10
-1620.65940207745
 20
-598.9859716942592
 30
0.0
 11
-1596.024453594218
 21
-590.1828261606933
 31
0.0
  0
LINE
  5
153
330
F9
100
AcDbEntity
  8
LINEA-SPESSA
100
AcDbLine
 10
-1512.44797785276
 20
-593.5368148642956
 30
0.0
 11
-1512.44797785276
 21
-610.5896681638768
 31
0.0
  0
LINE
  5
154
330
F9
100
AcDbEntity
  8
LINEA-SPESSA
100
AcDbLine
 10
-1512.44797785276
 20
-610.5896681638768
 30
0.0
 11
-1479.841955956595
 21
-610.5896681638768
 31
0.0
  0
LINE
  5
155
330
F9
100
AcDbEntity
  8
LINEA-SPESSA
100
AcDbLine
 10
-1479.841955956595
 20
-610.5896681638768
 30
0.0
 11
-1479.841955956595
 21
-602.2544788541927
 31
0.0
  0
LINE
  5
156
330
F9
100
AcDbEntity
  8
LINEA-SPESSA
100
AcDbLine
 10
-1312.675369854216
 20
-593.5368148642956
 30
0.0
 11
-1312.675369854216
 21
-610.5896681638768
 31
0.0
  0
LINE
  5
157
330
F9
100
AcDbEntity
  8
LINEA-SPESSA
100
AcDbLine
 10
-1312.675369854216
 20
-610.5896681638768
 30
0.0
 11
-1280.069347958051
 21
-610.5896681638768
 31
0.0
  0
LINE
  5
158
330
F9
100
AcDbEntity
  8
LINEA-SPESSA
100
AcDbLine
 10
-1280.069347958051
 20
-610.5896681638768
 30
0.0
 11
-1280.069347957905
 21
-580.2082924393325
 31
0.0
  0
LINE
  5
159
330
F9
100
AcDbEntity
  8
LINEA-SPESSA
100
AcDbLine
 10
-907.0662600439682
 20
178.2781921040077
 30
0.0
 11
-886.0889126423572
 21
178.2781921040077
 31
0.0
  0
LINE
  5
15A
330
F9
100
AcDbEntity
  8
LINEA-SPESSA
100
AcDbLine
 10
-886.0889126423572
 20
178.2781921040077
 30
0.0
 11
-886.0889126426627
 21
91.20785600948147
 31
0.0
  0
LINE
  5
15B
330
F9
100
AcDbEntity
  8
LINEA-SPESSA
100
AcDbLine
 10
-907.0662600441282
 20
-145.6887262472882
 30
0.0
 11
-907.0662600441282
 21
-223.4575284316888
 31
0.0
  0
LINE
  5
15C
330
F9
100
AcDbEntity
  8
LINEA-SPESSA
100
AcDbLine
 10
-939.971074519286
 20
-166.7888819584331
 30
0.0
 11
-907.0662600441282
 21
-166.7888819584331
 31
0.0
  0
LINE
  5
15D
330
F9
100
AcDbEntity
  8
LINEA-SPESSA
100
AcDbLine
 10
-886.0889126423572
 20
171.0745067993411
 30
0.0
 11
-867.8478041858179
 21
171.0745067994212
 31
0.0
  0
LINE
  5
15E
330
F9
100
AcDbEntity
  8
LINEA-SPESSA
100
AcDbLine
 10
-871.315616543332
 20
171.0745067993411
 30
0.0
 11
-871.315616543332
 21
91.48173953976948
 31
0.0
  0
LINE
  5
15F
330
F9
100
AcDbEntity
  8
LINEA-SPESSA
100
AcDbLine
 10
-834.5850455647013
 20
54.66823858065618
 30
0.0
 11
-834.5850455645559
 21
-7.745441394137742
 31
0.0
  0
LINE
  5
160
330
F9
100
AcDbEntity
  8
LINEA-SPESSA
100
AcDbLine
 10
-871.7252671943279
 20
-123.5897696314641
 30
0.0
 11
-871.7252671941677
 21
-216.253843127095
 31
0.0
  0
LINE
  5
161
330
F9
100
AcDbEntity
  8
LINEA-SPESSA
100
AcDbLine
 10
-847.9222140142374
 20
78.41043330363027
 30
0.0
 11
-871.315616543332
 21
78.4104333037103
 31
0.0
  0
LINE
  5
162
330
F9
100
AcDbEntity
  8
LINEA-SPESSA
100
AcDbLine
 10
-834.5850455647013
 20
45.59472702115454
 30
0.0
 11
-886.0889126423572
 21
45.59472702115454
 31
0.0
  0
LINE
  5
163
330
F9
100
AcDbEntity
  8
LINEA-SPESSA
100
AcDbLine
 10
-855.5063355091405
 20
45.59472702115454
 30
0.0
 11
-855.5063355091405
 21
-22.58966816387692
 31
0.0
  0
LINE
  5
164
330
F9
100
AcDbEntity
  8
LINEA-SPESSA
100
AcDbLine
 10
-834.5850455647013
 20
4.803750039354781
 30
0.0
 11
-886.0889126423572
 21
4.803750039354781
 31
0.0
  0
CIRCLE
  5
165
330
F9
100
AcDbEntity
  8
LINEA-SPESSA
100
AcDbCircle
 10
-850.3004876447521
 20
192.3848616805989
 30
0.0
 40
27.6050637194197
  0
CIRCLE
  5
166
330
F9
100
AcDbEntity
  8
LINEA-SPESSA
100
AcDbCircle
 10
-850.3004876447521
 20
192.3848616805989
 30
0.0
 40
14.86492848139984
  0
LINE
  5
167
330
F9
100
AcDbEntity
  8
LINEA-SPESSA
100
AcDbLine
 10
-836.5462064895545
 20
168.4503825165229
 30
0.0
 11
-836.546206489409
 21
137.7481699166964
 31
0.0
  0
LINE
  5
168
330
F9
100
AcDbEntity
  8
LINEA-SPESSA
100
AcDbLine
 10
-836.546206489409
 20
137.7481699166964
 30
0.0
 11
-852.6991505236656
 21
114.4770518710283
 31
0.0
  0
LINE
  5
169
330
F9
100
AcDbEntity
  8
LINEA-SPESSA
100
AcDbLine
 10
-852.6991505236656
 20
114.4770518710283
 30
0.0
 11
-871.315616543332
 21
114.4770518710283
 31
0.0
  0
LINE
  5
16A
330
F9
100
AcDbEntity
  8
LINEA-SPESSA
100
AcDbLine
 10
-832.7531711037009
 20
171.0745067994212
 30
0.0
 11
-544.4632842216233
 21
171.0745067993411
 31
0.0
  0
LINE
  5
16B
330
F9
100
AcDbEntity
  8
LINEA-SPESSA
100
AcDbLine
 10
-864.0547687999497
 20
168.4503825165229
 30
0.0
 11
-864.0547687999497
 21
151.7346291575813
 31
0.0
  0
LINE
  5
16C
330
F9
100
AcDbEntity
  8
LINEA-SPESSA
100
AcDbLine
 10
-871.315616543332
 20
151.7346291575813
 30
0.0
 11
-864.0547687999497
 21
151.7346291575813
 31
0.0
  0
LINE
  5
16D
330
F9
100
AcDbEntity
  8
LINEA-SPESSA
100
AcDbLine
 10
-871.315616543332
 20
109.188743998493
 30
0.0
 11
-821.7327185404428
 21
109.188743998493
 31
0.0
  0
LINE
  5
16E
330
F9
100
AcDbEntity
  8
LINEA-SPESSA
100
AcDbLine
 10
-745.4137756359123
 20
95.67856570902222
 30
0.0
 11
-544.4632842216233
 21
95.67856570902222
 31
0.0
  0
LINE
  5
16F
330
F9
100
AcDbEntity
  8
LINEA-SPESSA
100
AcDbLine
 10
-907.0662600441282
 20
-223.4575284316888
 30
0.0
 11
-886.0889126421971
 21
-223.4575284317616
 31
0.0
  0
LINE
  5
170
330
F9
100
AcDbEntity
  8
LINEA-SPESSA
100
AcDbLine
 10
-886.0889126423572
 20
-216.253843127095
 30
0.0
 11
-871.7252671941677
 21
-216.253843127095
 31
0.0
  0
LINE
  5
171
330
F9
100
AcDbEntity
  8
LINEA-SPESSA
100
AcDbLine
 10
-834.585045565007
 20
-123.5897696314641
 30
0.0
 11
-871.7252671943279
 21
-123.5897696314641
 31
0.0
  0
LINE
  5
172
330
F9
100
AcDbEntity
  8
LINEA-SPESSA
100
AcDbLine
 10
-834.5850455647013
 20
-90.77406334890838
 30
0.0
 11
-886.0889126423572
 21
-90.77406334890838
 31
0.0
  0
LINE
  5
173
330
F9
100
AcDbEntity
  8
LINEA-SPESSA
100
AcDbLine
 10
-855.5063355091405
 20
-90.77406334890838
 30
0.0
 11
-855.5063355091405
 21
-22.58966816387692
 31
0.0
  0
LINE
  5
174
330
F9
100
AcDbEntity
  8
LINEA-SPESSA
100
AcDbLine
 10
-834.5850455647013
 20
-49.98308636710863
 30
0.0
 11
-886.0889126423572
 21
-49.98308636710863
 31
0.0
  0
LINE
  5
175
330
F9
100
AcDbEntity
  8
LINEA-SPESSA
100
AcDbLine
 10
-871.315616543332
 20
-154.3680803262468
 30
0.0
 11
-855.0190668399881
 21
-154.3680803262468
 31
0.0
  0
LINE
  5
176
330
F9
100
AcDbEntity
  8
LINEA-SPESSA
100
AcDbLine
 10
-871.315616543332
 20
-140.8579020367688
 30
0.0
 11
-544.4632842216233
 21
-140.8579020367688
 31
0.0
  0
LINE
  5
177
330
F9
100
AcDbEntity
  8
LINEA-SPESSA
100
AcDbLine
 10
-836.5462064895545
 20
147.6941876314158
 30
0.0
 11
-544.4632842216233
 21
147.6941876314158
 31
0.0
  0
LINE
  5
178
330
F9
100
AcDbEntity
  8
LINEA-SPESSA
100
AcDbLine
 10
-871.7252671941677
 20
-192.8735239591624
 30
0.0
 11
-855.0190668398427
 21
-192.8735239590896
 31
0.0
  0
LINE
  5
179
330
F9
100
AcDbEntity
  8
LINEA-SPESSA
100
AcDbLine
 10
-745.4137756359123
 20
67.0724886029202
 30
0.0
 11
-544.4632842216233
 21
67.0724886029202
 31
0.0
  0
LINE
  5
17A
330
F9
100
AcDbEntity
  8
LINEA-SPESSA
100
AcDbLine
 10
-834.5850455648614
 20
-112.2518249307468
 30
0.0
 11
-544.4632842216233
 21
-112.2518249306667
 31
0.0
  0
CIRCLE
  5
17B
330
F9
100
AcDbEntity
  8
LINEA-SPESSA
100
AcDbCircle
 10
-834.5850455648614
 20
-22.58966816387692
 30
0.0
 40
14.84422676976387
  0
LINE
  5
17C
330
F9
100
AcDbEntity
  8
LINEA-SPESSA
100
AcDbLine
 10
-834.5850455645559
 20
-37.43389493360882
 30
0.0
 11
-834.585045565007
 21
-123.5897696314641
 31
0.0
  0
CIRCLE
  5
17D
330
F9
100
AcDbEntity
  8
LINEA-SPESSA
100
AcDbCircle
 10
-593.2264283484546
 20
-22.58966816387692
 30
0.0
 40
14.84422676976387
  0
CIRCLE
  5
17E
330
F9
100
AcDbEntity
  8
LINEA-SPESSA
100
AcDbCircle
 10
-629.2692174451513
 20
30.51881996360316
 30
0.0
 40
10.46423285721732
  0
CIRCLE
  5
17F
330
F9
100
AcDbEntity
  8
LINEA-SPESSA
100
AcDbCircle
 10
-706.1843612044612
 20
34.52081039040786
 30
0.0
 40
10.46423285721732
  0
CIRCLE
  5
180
330
F9
100
AcDbEntity
  8
LINEA-SPESSA
100
AcDbCircle
 10
-757.0236729060707
 20
27.59575717563711
 30
0.0
 40
11.60989727020514
  0
LINE
  5
181
330
F9
100
AcDbEntity
  8
LINEA-SPESSA
100
AcDbLine
 10
-745.4137756359123
 20
27.59575717563711
 30
0.0
 11
-745.4137756360578
 21
126.2955698069854
 31
0.0
  0
LINE
  5
182
330
F9
100
AcDbEntity
  8
LINEA-SPESSA
100
AcDbLine
 10
-762.3604014423181
 20
17.28512949557625
 30
0.0
 11
-850.0146671472903
 21
62.65453236960457
 31
0.0
  0
ARC
  5
183
330
F9
100
AcDbEntity
  8
LINEA-SPESSA
100
AcDbCircle
 10
-757.0236729060707
 20
27.59575717563711
 30
0.0
 40
104.1377745372881
100
AcDbArc
 50
86.30280357942723
 51
156.3313419431771
  0
ARC
  5
184
330
F9
100
AcDbEntity
  8
LINEA-SPESSA
100
AcDbCircle
 10
-757.0236729060707
 20
27.59575717563711
 30
0.0
 40
18.26041690033736
100
AcDbArc
 50
192.1131816613166
 51
50.5209638617234
  0
ARC
  5
185
330
F9
100
AcDbEntity
  8
LINEA-SPESSA
100
AcDbCircle
 10
-847.6096170079253
 20
67.30111995072366
 30
0.0
 40
5.23211642860866
100
AcDbArc
 50
156.3313419427953
 51
242.6341455238316
  0
ARC
  5
186
330
F9
100
AcDbEntity
  8
LINEA-SPESSA
100
AcDbCircle
 10
-750.6458920646691
 20
126.2955698069854
 30
0.0
 40
5.23211642860866
100
AcDbArc
 50
0.0
 51
86.30280357942723
  0
LINE
  5
187
330
F9
100
AcDbEntity
  8
LINEA-SPESSA
100
AcDbLine
 10
-745.4137756359123
 20
109.188743998493
 30
0.0
 11
-544.4632842216233
 21
109.188743998493
 31
0.0
  0
LINE
  5
188
330
F9
100
AcDbEntity
  8
LINEA-SPESSA
100
AcDbLine
 10
-835.8234652141108
 20
95.67856570902222
 30
0.0
 11
-871.315616543332
 21
95.67856570902222
 31
0.0
  0
LINE
  5
189
330
F9
100
AcDbEntity
  8
LINEA-SPESSA
100
AcDbLine
 10
-696.6653737151209
 20
171.0745067994212
 30
0.0
 11
-696.6653737151209
 21
147.6941876314158
 31
0.0
  0
LINE
  5
18A
330
F9
100
AcDbEntity
  8
LINEA-SPESSA
100
AcDbLine
 10
-670.8110275137296
 20
171.0745067994212
 30
0.0
 11
-670.8110275137296
 21
147.6941876314158
 31
0.0
  0
LINE
  5
18B
330
F9
100
AcDbEntity
  8
LINEA-SPESSA
100
AcDbLine
 10
-600.637871042898
 20
171.0745067994212
 30
0.0
 11
-600.637871042898
 21
147.6941876314158
 31
0.0
  0
LINE
  5
18C
330
F9
100
AcDbEntity
  8
LINEA-SPESSA
100
AcDbLine
 10
-570.7829628286999
 20
171.0745067994212
 30
0.0
 11
-570.7829628286999
 21
147.6941876314158
 31
0.0
  0
LWPOLYLINE
  5
18D
330
F9
100
AcDbEntity
  8
LINEA-SPESSA
100
AcDbPolyline
 90
        4
 70
     1
 43
0.0
 10
-690.509833673801
 20
197.6421657679675
 10
-677.5831995872722
 20
197.6421657679675
 10
-677.5831995872722
 20
171.0745067994066
 10
-690.509833673801
 20
171.0745067994066
  0
ARC
  5
18E
330
F9
100
AcDbEntity
  8
LINEA-SPESSA
100
AcDbCircle
 10
-757.0236729060707
 20
27.59575717563711
 30
0.0
 40
89.53515705107845
100
AcDbArc
 50
90.0
 51
129.7146761498437
  0
ARC
  5
18F
330
F9
100
AcDbEntity
  8
LINEA-SPESSA
100
AcDbCircle
 10
-757.0236729060707
 20
27.59575717563711
 30
0.0
 40
81.07509514295884
100
AcDbArc
 50
90.0
 51
130.006410905023
  0
LINE
  5
190
330
F9
100
AcDbEntity
  8
LINEA-SPESSA
100
AcDbLine
 10
-829.1823967476521
 20
64.55911235342501
 30
0.0
 11
-836.7120489771769
 21
68.41618180972727
 31
0.0
  0
LINE
  5
191
330
F9
100
AcDbEntity
  8
LINEA-SPESSA
100
AcDbLine
 10
-757.0236729062162
 20
108.6708523186025
 30
0.0
 11
-757.0236729062162
 21
117.1309142267491
 31
0.0
  0
LINE
  5
192
330
F9
100
AcDbEntity
  8
LINEA-SPESSA
100
AcDbLine
 10
-1044.152616228107
 20
88.2774980940958
 30
0.0
 11
-838.7907172328706
 21
92.08472171706672
 31
0.0
  0
LINE
  5
193
330
F9
100
AcDbEntity
  8
LINEA-SPESSA
100
AcDbLine
 10
-1044.009453314269
 20
80.55528086682171
 30
0.0
 11
-844.3981834345468
 21
84.25589303408196
 31
0.0
  0
LINE
  5
194
330
F9
100
AcDbEntity
  8
LINEA-SPESSA
100
AcDbLine
 10
-907.0662600442737
 20
90.81895498648373
 30
0.0
 11
-907.0662600441282
 21
178.2781921040878
 31
0.0
  0
LINE
  5
195
330
F9
100
AcDbEntity
  8
LINEA-SPESSA
100
AcDbLine
 10
-886.0889126426627
 20
83.4829846714274
 30
0.0
 11
-886.0889126421971
 21
-223.4575284317616
 31
0.0
  0
LINE
  5
196
330
F9
100
AcDbEntity
  8
LINEA-SPESSA
100
AcDbLine
 10
-871.315616543332
 20
83.75686820179543
 30
0.0
 11
-871.315616543332
 21
78.4104333037103
 31
0.0
  0
LINE
  5
197
330
F9
100
AcDbEntity
  8
LINEA-SPESSA
100
AcDbLine
 10
-826.0711601088551
 20
84.59565944882342
 30
0.0
 11
-820.4469720033667
 21
84.699926802743
 31
0.0
  0
LWPOLYLINE
  5
198
330
F9
100
AcDbEntity
  8
LINEA-SPESSA
100
AcDbPolyline
 90
        4
 70
     1
 43
0.0
 10
-817.2099288197641
 20
104.5097578813511
 10
-814.2334934334211
 20
104.5097578813511
 10
-814.2334934334211
 20
74.07545635582209
 10
-817.2099288197641
 20
74.07545635582209
  0
ARC
  5
199
330
F9
100
AcDbEntity
  8
LINEA-SPESSA
100
AcDbCircle
 10
-815.7217111265198
 20
89.29260711860843
 30
0.0
 40
6.589446322617739
100
AcDbArc
 50
103.0527880652226
 51
256.9472119347774
  0
ARC
  5
19A
330
F9
100
AcDbEntity
  8
LINEA-SPESSA
100
AcDbCircle
 10
-815.7217111265198
 20
89.29260711860843
 30
0.0
 40
6.589446322617739
100
AcDbArc
 50
283.0527880652226
 51
76.94721193477739
  0
LINE
  5
19B
330
F9
100
AcDbEntity
  8
LINEA-SPESSA
100
AcDbLine
 10
-810.0328228929138
 20
92.61786703385586
 30
0.0
 11
-805.3347705118794
 21
92.70496467015618
 31
0.0
  0
ARC
  5
19C
330
F9
100
AcDbEntity
  8
LINEA-SPESSA
100
AcDbCircle
 10
-757.0236729060707
 20
27.59575717563711
 30
0.0
 40
89.53515705107845
100
AcDbArc
 50
136.8058356510447
 51
152.8761750730205
  0
ARC
  5
19D
330
F9
100
AcDbEntity
  8
LINEA-SPESSA
100
AcDbCircle
 10
-757.0236729060707
 20
27.59575717563711
 30
0.0
 40
81.07509514295884
100
AcDbArc
 50
137.9321538813014
 51
152.8761750730205
  0
CIRCLE
  5
19E
330
F9
100
AcDbEntity
  8
LINEA-SPESSA
100
AcDbCircle
 10
-1708.761207754971
 20
-86.95749164232257
 30
0.0
 40
7.349286800991965
  0
CIRCLE
  5
19F
330
F9
100
AcDbEntity
  8
LINEA-SPESSA
100
AcDbCircle
 10
-1429.808519109428
 20
27.1879293918173
 30
0.0
 40
7.349286800991965
  0
CIRCLE
  5
1A0
330
F9
100
AcDbEntity
  8
LINEA-SPESSA
100
AcDbCircle
 10
-1156.534882117019
 20
-14.77452441881905
 30
0.0
 40
7.349286800991965
  0
CIRCLE
  5
1A1
330
F9
100
AcDbEntity
  8
LINEA-SPESSA
100
AcDbCircle
 10
-485.2433045482611
 20
94.81777376352694
 30
0.0
 40
3.003799886112834
  0
CIRCLE
  5
1A2
330
F9
100
AcDbEntity
  8
LINEA-SPESSA
100
AcDbCircle
 10
-234.5028822506865
 20
90.92447177764553
 30
0.0
 40
3.003799886112834
  0
CIRCLE
  5
1A3
330
F9
100
AcDbEntity
  8
LINEA-SPESSA
100
AcDbCircle
 10
-485.2433045482611
 20
-139.9971100912807
 30
0.0
 40
3.003799886112834
  0
CIRCLE
  5
1A4
330
F9
100
AcDbEntity
  8
LINEA-SPESSA
100
AcDbCircle
 10
-234.5028822506865
 20
-136.103808105392
 30
0.0
 40
3.003799886112834
  0
LINE
  5
1A5
330
F9
100
AcDbEntity
  8
LINEA-SPESSA
100
AcDbLine
 10
-719.4419498956412
 20
-112.2518249306667
 30
0.0
 11
-719.4419498956412
 21
-96.78764337737812
 31
0.0
  0
LINE
  5
1A6
330
F9
100
AcDbEntity
  8
LINEA-SPESSA
100
AcDbLine
 10
-719.4419498956412
 20
-96.78764337737812
 30
0.0
 11
-696.2363185596187
 21
-96.78764337737812
 31
0.0
  0
LINE
  5
1A7
330
F9
100
AcDbEntity
  8
LINEA-SPESSA
100
AcDbLine
 10
-696.2363185596187
 20
-96.78764337737812
 30
0.0
 11
-696.2363185596187
 21
-112.2518249306667
 31
0.0
  0
LWPOLYLINE
  5
1A8
330
F9
100
AcDbEntity
  8
LINEA-SPESSA
100
AcDbPolyline
 90
        4
 70
     1
 43
0.0
 10
-711.9542283889313
 20
-88.55745505529194
 10
-703.7240400666778
 20
-88.55745505529194
 10
-703.7240400666778
 20
-96.78764337737085
 10
-711.9542283889313
 20
-96.78764337737085
  0
LWPOLYLINE
  5
1A9
330
F9
100
AcDbEntity
  8
LINEA-SPESSA
100
AcDbPolyline
 90
        6
 70
     1
 43
0.0
 10
-844.0609119332803
 20
-167.0818925976564
 10
-831.5385383570975
 20
-188.7712798628999
 10
-806.4937912047316
 20
-188.7712798628999
 10
-793.9714176285487
 20
-167.0818925976564
 10
-806.4937912047316
 20
-145.3925053324128
 10
-831.5385383570975
 20
-145.3925053324128
  0
LINE
  5
1AA
330
F9
100
AcDbEntity
  8
LINEA-SPESSA
100
AcDbLine
 10
-855.0190668401482
 20
-151.2954092229556
 30
0.0
 11
-834.9465815072035
 21
-151.2954092229556
 31
0.0
  0
LINE
  5
1AB
330
F9
100
AcDbEntity
  8
LINEA-SPESSA
100
AcDbLine
 10
-783.0132627216808
 20
-151.2954092229556
 30
0.0
 11
-783.0132627216808
 21
-225.5521724080535
 31
0.0
  0
LINE
  5
1AC
330
F9
100
AcDbEntity
  8
LINEA-SPESSA
100
AcDbLine
 10
-783.0132627216808
 20
-225.5521724080535
 30
0.0
 11
-855.0190668398427
 21
-225.5521724080535
 31
0.0
  0
LINE
  5
1AD
330
F9
100
AcDbEntity
  8
LINEA-SPESSA
100
AcDbLine
 10
-855.0190668401482
 20
-151.2954092229556
 30
0.0
 11
-855.0190668398427
 21
-225.5521724080535
 31
0.0
  0
LINE
  5
1AE
330
F9
100
AcDbEntity
  8
LINEA-SPESSA
100
AcDbLine
 10
-842.9084999706974
 20
-225.5521724080535
 30
0.0
 11
-842.9084999706974
 21
-257.1102713990039
 31
0.0
  0
LWPOLYLINE
  5
1AF
330
F9
100
AcDbEntity
  8
LINEA-SPESSA
100
AcDbPolyline
 90
        6
 70
     0
 43
0.0
 10
-799.7133812991378
 20
-257.1102713990185
 10
-781.0156767853477
 20
-257.1102713990185
 10
-781.0156767853477
 20
-298.136056427953
 10
-856.8387781519851
 20
-298.136056427953
 10
-856.8387781519851
 20
-257.1102713990185
 10
-838.7436913061829
 20
-257.1102713990185
  0
LINE
  5
1B0
330
F9
100
AcDbEntity
  8
LINEA-SPESSA
100
AcDbLine
 10
-855.0190668398427
 20
-225.5521724080535
 30
0.0
 11
-877.6899962743772
 21
-225.5521724081336
 31
0.0
  0
LINE
  5
1B1
330
F9
100
AcDbEntity
  8
LINEA-SPESSA
100
AcDbLine
 10
-877.6899962743772
 20
-225.5521724081336
 30
0.0
 11
-877.6899962743772
 21
-269.1024002837293
 31
0.0
  0
LINE
  5
1B2
330
F9
100
AcDbEntity
  8
LINEA-SPESSA
100
AcDbLine
 10
-877.6899962743772
 20
-269.1024002837293
 30
0.0
 11
-856.8387781519414
 21
-269.1024002837293
 31
0.0
  0
LINE
  5
1B3
330
F9
100
AcDbEntity
  8
LINEA-SPESSA
100
AcDbLine
 10
-798.8861474095029
 20
-225.5521724080535
 30
0.0
 11
-798.8861474095029
 21
-257.1102713990039
 31
0.0
  0
LINE
  5
1B4
330
F9
100
AcDbEntity
  8
LINEA-SPESSA
100
AcDbLine
 10
-781.015676785275
 20
-263.2275849748402
 30
0.0
 11
-592.8722637198807
 21
-263.2275849748402
 31
0.0
  0
LINE
  5
1B5
330
F9
100
AcDbEntity
  8
LINEA-SPESSA
100
AcDbLine
 10
-592.8722637198807
 20
-263.2275849748402
 30
0.0
 11
-592.8722637198807
 21
-243.2089172581254
 31
0.0
  0
LINE
  5
1B6
330
F9
100
AcDbEntity
  8
LINEA-SPESSA
100
AcDbLine
 10
-592.8722637198807
 20
-243.2089172581254
 30
0.0
 11
-780.1748149230552
 21
-243.2089172581254
 31
0.0
  0
LINE
  5
1B7
330
F9
100
AcDbEntity
  8
LINEA-SPESSA
100
AcDbLine
 10
-781.015676785275
 20
-257.1102713990039
 30
0.0
 11
-781.015676785275
 21
-243.2089172581254
 31
0.0
  0
LINE
  5
1B8
330
F9
100
AcDbEntity
  8
LINEA-SPESSA
100
AcDbLine
 10
-781.015676785275
 20
-243.2089172581254
 30
0.0
 11
-798.8861474095029
 21
-243.2089172581254
 31
0.0
  0
LWPOLYLINE
  5
1B9
330
F9
100
AcDbEntity
  8
LINEA-SPESSA
100
AcDbPolyline
 90
        8
 70
     1
 43
0.0
 10
-799.7133812991378
 20
-285.210584377397
 10
-799.7133812991378
 20
-256.6445072275746
 42
0.4142135623737548
 10
-804.9454977278074
 20
-251.4123907989633
 10
-833.5115748777461
 20
-251.4123907990797
 42
0.4142135623730951
 10
-838.7436913064156
 20
-256.644507227691
 10
-838.7436913064156
 20
-285.210584377397
 42
0.4142135623717755
 10
-833.5115748777461
 20
-290.4427008060083
 10
-804.9454977278074
 20
-290.4427008060083
 42
0.4142135623730951
  0
LINE
  5
1BA
330
F9
100
AcDbEntity
  8
LINEA-SPESSA
100
AcDbLine
 10
-723.4499999998515
 20
-320.2644077991499
 30
0.0
 11
-646.5499999998574
 21
-320.2644077991499
 31
0.0
  0
LINE
  5
1BB
330
F9
100
AcDbEntity
  8
LINEA-SPESSA
100
AcDbLine
 10
-640.9803425083518
 20
-243.2089172581254
 30
0.0
 11
-640.9803425083518
 21
-192.8735239592424
 31
0.0
  0
LINE
  5
1BC
330
F9
100
AcDbEntity
  8
LINEA-SPESSA
100
AcDbLine
 10
-729.0196574913716
 20
-243.2089172581254
 30
0.0
 11
-729.0196574913716
 21
-192.8735239592424
 31
0.0
  0
LINE
  5
1BD
330
F9
100
AcDbEntity
  8
LINEA-SPESSA
100
AcDbLine
 10
-783.0132627216808
 20
-200.7245538581264
 30
0.0
 11
-729.0196574912116
 21
-200.7245538581264
 31
0.0
  0
CIRCLE
  5
1BE
330
F9
100
AcDbEntity
  8
LINEA-SPESSA
100
AcDbCircle
 10
-684.9999999998544
 20
-223.3686626426933
 30
0.0
 40
15.81574920240007
  0
LINE
  5
1BF
330
F9
100
AcDbEntity
  8
LINEA-SPESSA
100
AcDbLine
 10
-619.9702078584087
 20
-216.2538431271677
 30
0.0
 11
-544.4632842216233
 21
-216.253843127095
 31
0.0
  0
LINE
  5
1C0
330
F9
100
AcDbEntity
  8
LINEA-SPESSA
100
AcDbLine
 10
-625.20232428702
 20
-243.2089172581254
 30
0.0
 11
-625.20232428702
 21
-221.4859595557791
 31
0.0
  0
ARC
  5
1C1
330
F9
100
AcDbEntity
  8
LINEA-SPESSA
100
AcDbCircle
 10
-619.9702078584087
 20
-221.4859595557791
 30
0.0
 40
5.23211642860866
100
AcDbArc
 50
90.0
 51
180.0
  0
LINE
  5
1C2
330
F9
100
AcDbEntity
  8
LINEA-SPESSA
100
AcDbLine
 10
-750.0297921413148
 20
-216.2538431271677
 30
0.0
 11
-783.0132627216808
 21
-216.253843127095
 31
0.0
  0
LINE
  5
1C3
330
F9
100
AcDbEntity
  8
LINEA-SPESSA
100
AcDbLine
 10
-744.7976757127035
 20
-243.2089172581254
 30
0.0
 11
-744.7976757127035
 21
-221.4859595557791
 31
0.0
  0
ARC
  5
1C4
330
F9
100
AcDbEntity
  8
LINEA-SPESSA
100
AcDbCircle
 10
-750.0297921413148
 20
-221.4859595557791
 30
0.0
 40
5.23211642860866
100
AcDbArc
 50
0.0
 51
90.0
  0
LINE
  5
1C5
330
F9
100
AcDbEntity
  8
LINEA-SPESSA
100
AcDbLine
 10
-783.0132627216808
 20
-192.8735239590896
 30
0.0
 11
-544.4632842216233
 21
-192.8735239591624
 31
0.0
  0
LINE
  5
1C6
330
F9
100
AcDbEntity
  8
LINEA-SPESSA
100
AcDbLine
 10
-783.0132627216808
 20
-154.3680803262468
 30
0.0
 11
-544.4632842216233
 21
-154.3680803262468
 31
0.0
  0
LINE
  5
1C7
330
F9
100
AcDbEntity
  8
LINEA-SPESSA
100
AcDbLine
 10
-803.0857480544801
 20
-151.2954092229556
 30
0.0
 11
-783.0132627216808
 21
-151.2954092229556
 31
0.0
  0
ARC
  5
1C8
330
F9
100
AcDbEntity
  8
LINEA-SPESSA
100
AcDbCircle
 10
-1424.313719082463
 20
-88.28804112523357
 30
0.0
 40
423.6817560537813
100
AcDbArc
 50
182.1943727878849
 51
185.8060729281349
  0
LINE
  5
1C9
330
F9
100
AcDbEntity
  8
LINEA-SPESSA
100
AcDbLine
 10
-723.4499999998515
 20
-320.2644077991499
 30
0.0
 11
-723.4499999998515
 21
-263.2275849748402
 31
0.0
  0
LINE
  5
1CA
330
F9
100
AcDbEntity
  8
LINEA-SPESSA
100
AcDbLine
 10
-646.5499999998574
 20
-320.2644077991499
 30
0.0
 11
-646.5499999998574
 21
-263.2275849748402
 31
0.0
  0
ENDBLK
  5
1CC
330
F9
100
AcDbEntity
  8
0
100
AcDbBlockEnd
  0
BLOCK
  5
F6
330
48
100
AcDbEntity
  8
0
100
AcDbBlockBegin
  2
RS300EBLUR
 70
     0
 10
0.0
 20
0.0
 30
0.0
  3
RS300EBLUR
  1

  0
LINE
  5
49
330
48
100
AcDbEntity
  8
LINEA-SPESSA
100
AcDbLine
 10
0.0
 20
312.8765738294314
 30
0.0
 11
0.0
 21
286.2156068595431
 31
0.0
  0
LINE
  5
4A
330
48
100
AcDbEntity
  8
LINEA-SPESSA
100
AcDbLine
 10
-244.2132354352797
 20
839.6064114160909
 30
0.0
 11
-244.2132354352797
 21
495.7089881283391
 31
0.0
  0
LINE
  5
4B
330
48
100
AcDbEntity
  8
LINEA-SPESSA
100
AcDbLine
 10
244.2132354354689
 20
839.60641141612
 30
0.0
 11
244.2132354352797
 21
493.9663843030139
 31
0.0
  0
ARC
  5
4C
330
48
100
AcDbEntity
  8
LINEA-SPESSA
100
AcDbCircle
 10
0.0
 20
-235.274586483938
 30
0.0
 40
1102.274586483937
100
AcDbArc
 50
77.19968247534461
 51
102.8003175246553
  0
LINE
  5
4D
330
48
100
AcDbEntity
  8
LINEA-SPESSA
100
AcDbLine
 10
-306.6752574199053
 20
495.7089881283391
 30
0.0
 11
-300.4356311925803
 21
706.8342340562521
 31
0.0
  0
ARC
  5
4E
330
48
100
AcDbEntity
  8
LINEA-SPESSA
100
AcDbCircle
 10
-93.4592686688993
 20
697.4798455229465
 30
0.0
 40
207.1876425570795
100
AcDbArc
 50
136.687277583787
 51
177.4122528007634
  0
ARC
  5
4F
330
48
100
AcDbEntity
  8
LINEA-SPESSA
100
AcDbCircle
 10
0.0
 20
-185.8450754255391
 30
0.0
 40
1012.222752191983
100
AcDbArc
 50
76.03882635419335
 51
103.9611736458066
  0
ARC
  5
50
330
48
100
AcDbEntity
  8
LINEA-SPESSA
100
AcDbCircle
 10
-115.4892264327063
 20
653.2897662918985
 30
0.0
 40
192.5413790897158
100
AcDbArc
 50
131.9554395901542
 51
163.8535601154336
  0
LINE
  5
51
330
48
100
AcDbEntity
  8
LINEA-SPESSA
100
AcDbLine
 10
306.6752574199053
 20
495.7089881283391
 30
0.0
 11
300.4356311925803
 21
706.8342340562521
 31
0.0
  0
ARC
  5
52
330
48
100
AcDbEntity
  8
LINEA-SPESSA
100
AcDbCircle
 10
93.45926866884111
 20
697.4798455229902
 30
0.0
 40
207.1876425571359
100
AcDbArc
 50
2.587747199236603
 51
43.31272241621298
  0
ARC
  5
53
330
48
100
AcDbEntity
  8
LINEA-SPESSA
100
AcDbCircle
 10
115.4892264327063
 20
653.2897662918985
 30
0.0
 40
192.5413790897158
100
AcDbArc
 50
16.14643988456637
 51
48.04456040984579
  0
LINE
  5
54
330
48
100
AcDbEntity
  8
LINEA-SPESSA
100
AcDbLine
 10
244.2132354352797
 20
495.7089881283391
 30
0.0
 11
-244.2132354352797
 21
495.7089881283391
 31
0.0
  0
ARC
  5
55
330
48
100
AcDbEntity
  8
LINEA-SPESSA
100
AcDbCircle
 10
1203.96054303534
 20
478.3794808993698
 30
0.0
 40
1448.277461148479
100
AcDbArc
 50
179.3144053214844
 51
185.6562829623576
  0
ARC
  5
56
330
48
100
AcDbEntity
  8
LINEA-SPESSA
100
AcDbCircle
 10
-100.1718425151921
 20
490.1672661950724
 30
0.0
 40
206.57776029693
100
AcDbArc
 50
178.4627804390158
 51
228.4218376598203
  0
ARC
  5
57
330
48
100
AcDbEntity
  8
LINEA-SPESSA
100
AcDbCircle
 10
-1203.96054303534
 20
478.3794808993698
 30
0.0
 40
1448.277461148479
100
AcDbArc
 50
354.3437170376423
 51
0.6855946785155264
  0
ARC
  5
58
330
48
100
AcDbEntity
  8
LINEA-SPESSA
100
AcDbCircle
 10
100.1718425151921
 20
490.1672661950724
 30
0.0
 40
206.57776029693
100
AcDbArc
 50
311.5781623401796
 51
1.537219560984115
  0
ARC
  5
59
330
48
100
AcDbEntity
  8
LINEA-SPESSA
100
AcDbCircle
 10
0.0
 20
1560.963640705718
 30
0.0
 40
1248.087066876284
100
AcDbArc
 50
259.0411931313024
 51
280.9588068686975
  0
LINE
  5
5A
330
48
100
AcDbEntity
  8
LINEA-SPESSA
100
AcDbLine
 10
-244.2132354352797
 20
495.7089881310821
 30
0.0
 11
-306.6207477335264
 21
497.5533888269929
 31
0.0
  0
LINE
  5
5B
330
48
100
AcDbEntity
  8
LINEA-SPESSA
100
AcDbLine
 10
244.2132354352797
 20
495.7089881310821
 30
0.0
 11
306.620747733541
 21
497.5533888269929
 31
0.0
  0
LINE
  5
5C
330
48
100
AcDbEntity
  8
LINEA-SPESSA
100
AcDbLine
 10
-100.7816062769125
 20
742.9577602507925
 30
0.0
 11
0.0
 21
742.9577602507925
 31
0.0
  0
LINE
  5
5D
330
48
100
AcDbEntity
  8
LINEA-SPESSA
100
AcDbLine
 10
-100.7816062769125
 20
742.9577602507925
 30
0.0
 11
-100.7816062769125
 21
692.9226262888696
 31
0.0
  0
LINE
  5
5E
330
48
100
AcDbEntity
  8
LINEA-SPESSA
100
AcDbLine
 10
-100.7816062769125
 20
692.9226262888696
 30
0.0
 11
0.0
 21
692.9226262888696
 31
0.0
  0
LINE
  5
5F
330
48
100
AcDbEntity
  8
LINEA-SPESSA
100
AcDbLine
 10
0.0
 20
675.3571387146294
 30
0.0
 11
-106.6096110106736
 21
675.3571387147021
 31
0.0
  0
LINE
  5
60
330
48
100
AcDbEntity
  8
LINEA-SPESSA
100
AcDbLine
 10
-117.0738438678963
 20
685.8213715719175
 30
0.0
 11
-117.0738438678963
 21
757.9651414335748
 31
0.0
  0
ARC
  5
61
330
48
100
AcDbEntity
  8
LINEA-SPESSA
100
AcDbCircle
 10
-9.667662795487558
 20
464.0235327227347
 30
0.0
 40
327.3270043555189
100
AcDbArc
 50
88.30751257076137
 51
106.3938999153642
  0
ARC
  5
62
330
48
100
AcDbEntity
  8
LINEA-SPESSA
100
AcDbCircle
 10
-96.14537815346558
 20
757.9651414335748
 30
0.0
 40
20.92846571443464
100
AcDbArc
 50
106.3938999153642
 51
180.0
  0
ARC
  5
63
330
48
100
AcDbEntity
  8
LINEA-SPESSA
100
AcDbCircle
 10
-106.6096110106736
 20
685.8213715719175
 30
0.0
 40
10.46423285721732
100
AcDbArc
 50
180.0
 51
270.0
  0
LINE
  5
64
330
48
100
AcDbEntity
  8
LINEA-SPESSA
100
AcDbLine
 10
100.7816062769125
 20
742.9577602507925
 30
0.0
 11
0.0
 21
742.9577602507925
 31
0.0
  0
LINE
  5
65
330
48
100
AcDbEntity
  8
LINEA-SPESSA
100
AcDbLine
 10
100.7816062769125
 20
742.9577602507925
 30
0.0
 11
100.7816062769125
 21
692.9226262888696
 31
0.0
  0
LINE
  5
66
330
48
100
AcDbEntity
  8
LINEA-SPESSA
100
AcDbLine
 10
100.7816062769125
 20
692.9226262888696
 30
0.0
 11
0.0
 21
692.9226262888696
 31
0.0
  0
LINE
  5
67
330
48
100
AcDbEntity
  8
LINEA-SPESSA
100
AcDbLine
 10
0.0
 20
675.3571387146294
 30
0.0
 11
106.6096110106736
 21
675.3571387147021
 31
0.0
  0
LINE
  5
68
330
48
100
AcDbEntity
  8
LINEA-SPESSA
100
AcDbLine
 10
117.0738438678963
 20
685.8213715719175
 30
0.0
 11
117.0738438678963
 21
757.9651414335748
 31
0.0
  0
ARC
  5
69
330
48
100
AcDbEntity
  8
LINEA-SPESSA
100
AcDbCircle
 10
9.667662795487558
 20
464.0235327227347
 30
0.0
 40
327.3270043555189
100
AcDbArc
 50
73.6061000846357
 51
91.69248742923862
  0
ARC
  5
6A
330
48
100
AcDbEntity
  8
LINEA-SPESSA
100
AcDbCircle
 10
96.14537815346558
 20
757.9651414335748
 30
0.0
 40
20.92846571443464
100
AcDbArc
 50
0.0
 51
73.6061000846357
  0
ARC
  5
6B
330
48
100
AcDbEntity
  8
LINEA-SPESSA
100
AcDbCircle
 10
106.6096110106736
 20
685.8213715719175
 30
0.0
 40
10.46423285721732
100
AcDbArc
 50
270.0
 51
0.0
  0
LINE
  5
6C
330
48
100
AcDbEntity
  8
LINEA-SPESSA
100
AcDbLine
 10
-177.320593045908
 20
467.5248449404826
 30
0.0
 11
0.0
 21
467.5248449404826
 31
0.0
  0
LINE
  5
6D
330
48
100
AcDbEntity
  8
LINEA-SPESSA
100
AcDbLine
 10
-173.5215474832075
 20
457.2414829135887
 30
0.0
 11
0.0
 21
457.2414829135887
 31
0.0
  0
ARC
  5
6E
330
48
100
AcDbEntity
  8
LINEA-SPESSA
100
AcDbCircle
 10
-126.7971266772656
 20
431.8544749657449
 30
0.0
 40
66.92634467744115
100
AcDbArc
 50
153.4854096819161
 51
210.1799929000679
  0
ARC
  5
6F
330
48
100
AcDbEntity
  8
LINEA-SPESSA
100
AcDbCircle
 10
-6.375714393972884
 20
1092.429448720744
 30
0.0
 40
719.9034638803379
100
AcDbArc
 50
256.1995746527101
 51
270.5074378997415
  0
ARC
  5
70
330
48
100
AcDbEntity
  8
LINEA-SPESSA
100
AcDbCircle
 10
-175.6058217503887
 20
403.4699482573487
 30
0.0
 40
10.46423285721732
100
AcDbArc
 50
210.1799929000679
 51
256.1995746527101
  0
LINE
  5
71
330
48
100
AcDbEntity
  8
LINEA-SPESSA
100
AcDbLine
 10
-173.5215474829019
 20
392.198581229255
 30
0.0
 11
-173.5215474832075
 21
457.2414829135887
 31
0.0
  0
ARC
  5
72
330
48
100
AcDbEntity
  8
LINEA-SPESSA
100
AcDbCircle
 10
-177.3205930457625
 20
457.0606120832671
 30
0.0
 40
10.46423285721732
100
AcDbArc
 50
90.00000000083378
 51
153.4854096819161
  0
LINE
  5
73
330
48
100
AcDbEntity
  8
LINEA-SPESSA
100
AcDbLine
 10
177.320593045908
 20
467.5248449404826
 30
0.0
 11
0.0
 21
467.5248449404826
 31
0.0
  0
LINE
  5
74
330
48
100
AcDbEntity
  8
LINEA-SPESSA
100
AcDbLine
 10
173.5215474832075
 20
457.2414829135887
 30
0.0
 11
0.0
 21
457.2414829135887
 31
0.0
  0
ARC
  5
75
330
48
100
AcDbEntity
  8
LINEA-SPESSA
100
AcDbCircle
 10
126.7971266772656
 20
431.8544749657449
 30
0.0
 40
66.92634467744115
100
AcDbArc
 50
329.820007099932
 51
26.51459031808383
  0
ARC
  5
76
330
48
100
AcDbEntity
  8
LINEA-SPESSA
100
AcDbCircle
 10
6.375714393972884
 20
1092.429448720744
 30
0.0
 40
719.9034638803379
100
AcDbArc
 50
269.4925621002584
 51
283.8004253472898
  0
ARC
  5
77
330
48
100
AcDbEntity
  8
LINEA-SPESSA
100
AcDbCircle
 10
175.6058217503887
 20
403.4699482573487
 30
0.0
 40
10.46423285721732
100
AcDbArc
 50
283.8004253472898
 51
329.820007099932
  0
LINE
  5
78
330
48
100
AcDbEntity
  8
LINEA-SPESSA
100
AcDbLine
 10
173.5215474829019
 20
392.198581229255
 30
0.0
 11
173.5215474832075
 21
457.2414829135887
 31
0.0
  0
ARC
  5
79
330
48
100
AcDbEntity
  8
LINEA-SPESSA
100
AcDbCircle
 10
177.3205930457625
 20
457.0606120832671
 30
0.0
 40
10.46423285721732
100
AcDbArc
 50
26.51459031808383
 51
89.99999999916623
  0
LINE
  5
7A
330
48
100
AcDbEntity
  8
LINEA-SPESSA
100
AcDbLine
 10
-303.0284761386865
 20
451.134494781465
 30
0.0
 11
-321.0936560613045
 21
451.134494781465
 31
0.0
  0
LINE
  5
7B
330
48
100
AcDbEntity
  8
LINEA-SPESSA
100
AcDbLine
 10
-321.0936560613045
 20
451.134494781465
 30
0.0
 11
-321.0936560613045
 21
187.8828159478143
 31
0.0
  0
LINE
  5
7C
330
48
100
AcDbEntity
  8
LINEA-SPESSA
100
AcDbLine
 10
-321.0936560613045
 20
187.8828159478143
 30
0.0
 11
-140.7203886673087
 21
187.8828159478143
 31
0.0
  0
LINE
  5
7D
330
48
100
AcDbEntity
  8
LINEA-SPESSA
100
AcDbLine
 10
-140.7203886673087
 20
187.8828159478143
 30
0.0
 11
-140.7203886673087
 21
320.8349785431346
 31
0.0
  0
LINE
  5
7E
330
48
100
AcDbEntity
  8
LINEA-SPESSA
100
AcDbLine
 10
-321.0936560613045
 20
443.6487629307594
 30
0.0
 11
-345.7528677418449
 21
443.6487629307594
 31
0.0
  0
LINE
  5
7F
330
48
100
AcDbEntity
  8
LINEA-SPESSA
100
AcDbLine
 10
-345.7528677418449
 20
443.6487629307594
 30
0.0
 11
-374.666657487367
 21
420.6109148881369
 31
0.0
  0
LINE
  5
80
330
48
100
AcDbEntity
  8
LINEA-SPESSA
100
AcDbLine
 10
-374.666657487367
 20
420.6109148881369
 30
0.0
 11
-374.666657487367
 21
218.4063958410624
 31
0.0
  0
LINE
  5
81
330
48
100
AcDbEntity
  8
LINEA-SPESSA
100
AcDbLine
 10
-321.0936560613045
 20
195.3685477984472
 30
0.0
 11
-345.7528677418449
 21
195.3685477984472
 31
0.0
  0
LINE
  5
82
330
48
100
AcDbEntity
  8
LINEA-SPESSA
100
AcDbLine
 10
-345.7528677418449
 20
195.3685477984472
 30
0.0
 11
-374.666657487367
 21
218.4063958410624
 31
0.0
  0
LINE
  5
83
330
48
100
AcDbEntity
  8
LINEA-SPESSA
100
AcDbLine
 10
-345.7528677418449
 20
443.6487629307594
 30
0.0
 11
-345.7528677418449
 21
195.3685477984472
 31
0.0
  0
LINE
  5
84
330
48
100
AcDbEntity
  8
LINEA-SPESSA
100
AcDbLine
 10
-321.0936560613045
 20
319.5086553646033
 30
0.0
 11
-276.636006412722
 21
319.5086553646033
 31
0.0
  0
LINE
  5
85
330
48
100
AcDbEntity
  8
LINEA-SPESSA
100
AcDbLine
 10
-276.636006412722
 20
382.7672200625966
 30
0.0
 11
-276.636006412722
 21
261.8135138098514
 31
0.0
  0
LINE
  5
86
330
48
100
AcDbEntity
  8
LINEA-SPESSA
100
AcDbLine
 10
-276.636006412722
 20
261.8135138098514
 30
0.0
 11
-150.4377333140146
 21
261.8135138098514
 31
0.0
  0
LINE
  5
87
330
48
100
AcDbEntity
  8
LINEA-SPESSA
100
AcDbLine
 10
-150.4377333140146
 20
261.8135138098514
 30
0.0
 11
-150.4377333140146
 21
321.9762255560999
 31
0.0
  0
LINE
  5
88
330
48
100
AcDbEntity
  8
LINEA-SPESSA
100
AcDbLine
 10
-321.0936560613045
 20
338.4588951989135
 30
0.0
 11
-276.636006412722
 21
338.4588951989135
 31
0.0
  0
LINE
  5
89
330
48
100
AcDbEntity
  8
LINEA-SPESSA
100
AcDbLine
 10
-321.0936560613045
 20
359.0568928134016
 30
0.0
 11
-276.636006412722
 21
359.0568928134016
 31
0.0
  0
LINE
  5
8A
330
48
100
AcDbEntity
  8
LINEA-SPESSA
100
AcDbLine
 10
-321.0936560613045
 20
382.9509186695649
 30
0.0
 11
-276.636006412722
 21
382.9509186695649
 31
0.0
  0
LINE
  5
8B
330
48
100
AcDbEntity
  8
LINEA-SPESSA
100
AcDbLine
 10
-321.0936560613045
 20
397.7817640535358
 30
0.0
 11
-284.9400487720558
 21
397.7817640536086
 31
0.0
  0
LINE
  5
8C
330
48
100
AcDbEntity
  8
LINEA-SPESSA
100
AcDbLine
 10
-321.0936560613045
 20
419.2041532394432
 30
0.0
 11
-294.1785631435195
 21
419.2041532394432
 31
0.0
  0
LINE
  5
8D
330
48
100
AcDbEntity
  8
LINEA-SPESSA
100
AcDbLine
 10
-321.0936560613045
 20
435.6827564035848
 30
0.0
 11
-299.4350083087774
 21
435.6827564036575
 31
0.0
  0
LINE
  5
8E
330
48
100
AcDbEntity
  8
LINEA-SPESSA
100
AcDbLine
 10
-321.0936560613045
 20
300.5584155302858
 30
0.0
 11
-276.636006412722
 21
300.5584155302858
 31
0.0
  0
LINE
  5
8F
330
48
100
AcDbEntity
  8
LINEA-SPESSA
100
AcDbLine
 10
-321.0936560613045
 20
279.960417915805
 30
0.0
 11
-276.636006412722
 21
279.960417915805
 31
0.0
  0
LINE
  5
90
330
48
100
AcDbEntity
  8
LINEA-SPESSA
100
AcDbLine
 10
-321.0936560613045
 20
256.0663920596416
 30
0.0
 11
-276.636006412722
 21
256.0663920596416
 31
0.0
  0
LINE
  5
91
330
48
100
AcDbEntity
  8
LINEA-SPESSA
100
AcDbLine
 10
-321.0936560613045
 20
241.2355466756707
 30
0.0
 11
-140.7203886674542
 21
241.2355466754452
 31
0.0
  0
LINE
  5
92
330
48
100
AcDbEntity
  8
LINEA-SPESSA
100
AcDbLine
 10
-321.0936560613045
 20
219.8131574897633
 30
0.0
 11
-140.7203886674542
 21
219.8131574897633
 31
0.0
  0
LINE
  5
93
330
48
100
AcDbEntity
  8
LINEA-SPESSA
100
AcDbLine
 10
-321.0936560613045
 20
203.3345543256218
 30
0.0
 11
-140.7203886673087
 21
203.3345543253963
 31
0.0
  0
LINE
  5
94
330
48
100
AcDbEntity
  8
LINEA-SPESSA
100
AcDbLine
 10
-321.0936560613045
 20
444.0541426893905
 30
0.0
 11
-301.5370601915783
 21
444.0541426895361
 31
0.0
  0
LINE
  5
95
330
48
100
AcDbEntity
  8
LINEA-SPESSA
100
AcDbLine
 10
-321.0936560613045
 20
194.963168039816
 30
0.0
 11
-140.7203886673087
 21
194.9631680395905
 31
0.0
  0
LINE
  5
96
330
48
100
AcDbEntity
  8
LINEA-SPESSA
100
AcDbLine
 10
0.0
 20
0.0
 30
0.0
 11
-101.4706514002318
 21
-0.0000000000800355
 31
0.0
  0
LINE
  5
97
330
48
100
AcDbEntity
  8
LINEA-SPESSA
100
AcDbLine
 10
-111.9348842574399
 20
10.46423285713535
 30
0.0
 11
-111.9348842572944
 21
317.9061568417455
 31
0.0
  0
LINE
  5
98
330
48
100
AcDbEntity
  8
LINEA-SPESSA
100
AcDbLine
 10
-140.7203886673087
 20
194.9631680395905
 30
0.0
 11
-111.9348842572944
 21
194.9631680395905
 31
0.0
  0
ARC
  5
99
330
48
100
AcDbEntity
  8
LINEA-SPESSA
100
AcDbCircle
 10
-101.4706514002318
 20
10.46423285713535
 30
0.0
 40
10.46423285721732
100
AcDbArc
 50
180.0
 51
270.0
  0
LINE
  5
9A
330
48
100
AcDbEntity
  8
LINEA-SPESSA
100
AcDbLine
 10
0.0
 20
12.78114544462732
 30
0.0
 11
-101.4706514002318
 21
12.78114544470008
 31
0.0
  0
ARC
  5
9B
330
48
100
AcDbEntity
  8
LINEA-SPESSA
100
AcDbCircle
 10
-101.4706514002318
 20
23.24537830192275
 30
0.0
 40
10.46423285721732
100
AcDbArc
 50
180.0
 51
270.0
  0
LINE
  5
9C
330
48
100
AcDbEntity
  8
LINEA-SPESSA
100
AcDbLine
 10
0.0
 20
286.2156068595431
 30
0.0
 11
-9.622478180230245
 21
286.2156068595431
 31
0.0
  0
LINE
  5
9D
330
48
100
AcDbEntity
  8
LINEA-SPESSA
100
AcDbLine
 10
-9.622478180230245
 20
286.2156068595431
 30
0.0
 11
-9.622478180230245
 21
12.78114544462732
 31
0.0
  0
LINE
  5
9E
330
48
100
AcDbEntity
  8
LINEA-SPESSA
100
AcDbLine
 10
0.0
 20
0.0
 30
0.0
 11
101.4706514002318
 21
-0.0000000000800355
 31
0.0
  0
LINE
  5
9F
330
48
100
AcDbEntity
  8
LINEA-SPESSA
100
AcDbLine
 10
111.9348842574399
 20
10.46423285713535
 30
0.0
 11
111.9348842572944
 21
317.9061568417455
 31
0.0
  0
ARC
  5
A0
330
48
100
AcDbEntity
  8
LINEA-SPESSA
100
AcDbCircle
 10
101.4706514002318
 20
10.46423285713535
 30
0.0
 40
10.46423285721732
100
AcDbArc
 50
270.0
 51
0.0
  0
LINE
  5
A1
330
48
100
AcDbEntity
  8
LINEA-SPESSA
100
AcDbLine
 10
0.0
 20
12.78114544462732
 30
0.0
 11
101.4706514002318
 21
12.78114544470008
 31
0.0
  0
ARC
  5
A2
330
48
100
AcDbEntity
  8
LINEA-SPESSA
100
AcDbCircle
 10
101.4706514002318
 20
23.24537830192275
 30
0.0
 40
10.46423285721732
100
AcDbArc
 50
270.0
 51
0.0
  0
LINE
  5
A3
330
48
100
AcDbEntity
  8
LINEA-SPESSA
100
AcDbLine
 10
0.0
 20
286.2156068595431
 30
0.0
 11
9.622478180230245
 21
286.2156068595431
 31
0.0
  0
LINE
  5
A4
330
48
100
AcDbEntity
  8
LINEA-SPESSA
100
AcDbLine
 10
9.622478180230245
 20
286.2156068595431
 30
0.0
 11
9.622478180230245
 21
12.78114544462732
 31
0.0
  0
LINE
  5
A5
330
48
100
AcDbEntity
  8
LINEA-SPESSA
100
AcDbLine
 10
111.9348842574399
 20
56.68151257706631
 30
0.0
 11
311.242862175437
 21
56.68151257706631
 31
0.0
  0
LINE
  5
A6
330
48
100
AcDbEntity
  8
LINEA-SPESSA
100
AcDbLine
 10
311.2428621763537
 20
582.9658116840146
 30
0.0
 11
311.242862175437
 21
38.19576202354801
 31
0.0
  0
LINE
  5
A7
330
48
100
AcDbEntity
  8
LINEA-SPESSA
100
AcDbLine
 10
311.242862175437
 20
315.4850964135403
 30
0.0
 11
111.9348842572944
 21
315.4850964135403
 31
0.0
  0
LINE
  5
A8
330
48
100
AcDbEntity
  8
LINEA-SPESSA
100
AcDbLine
 10
111.9348842572944
 20
291.1614436066156
 30
0.0
 11
126.1810246502282
 21
291.1614436066156
 31
0.0
  0
LINE
  5
A9
330
48
100
AcDbEntity
  8
LINEA-SPESSA
100
AcDbLine
 10
126.1810246502282
 20
291.1614436066156
 30
0.0
 11
126.1810246502282
 21
173.4349435139665
 31
0.0
  0
LINE
  5
AA
330
48
100
AcDbEntity
  8
LINEA-SPESSA
100
AcDbLine
 10
126.1810246502282
 20
173.4349435139665
 30
0.0
 11
111.9348842574399
 21
173.4349435139665
 31
0.0
  0
LINE
  5
AB
330
48
100
AcDbEntity
  8
LINEA-SPESSA
100
AcDbLine
 10
111.9348842572944
 20
139.3816245117777
 30
0.0
 11
300.7786293183744
 21
139.3816245117777
 31
0.0
  0
ARC
  5
AC
330
48
100
AcDbEntity
  8
LINEA-SPESSA
100
AcDbCircle
 10
300.7786293183744
 20
128.9173916545551
 30
0.0
 40
10.46423285721732
100
AcDbArc
 50
0.0
 51
90.0
  0
LINE
  5
AD
330
48
100
AcDbEntity
  8
LINEA-SPESSA
100
AcDbLine
 10
311.242862175437
 20
38.19576202354801
 30
0.0
 11
345.3333425126329
 21
133.5442349396325
 31
0.0
  0
LINE
  5
AE
330
48
100
AcDbEntity
  8
LINEA-SPESSA
100
AcDbLine
 10
345.3333425126329
 20
133.5442349396325
 30
0.0
 11
345.3333425126329
 21
504.136956438233
 31
0.0
  0
LINE
  5
AF
330
48
100
AcDbEntity
  8
LINEA-SPESSA
100
AcDbLine
 10
317.1492147802782
 20
582.9658116840946
 30
0.0
 11
345.3333425126329
 21
504.136956438233
 31
0.0
  0
LINE
  5
B0
330
48
100
AcDbEntity
  8
LINEA-SPESSA
100
AcDbLine
 10
304.0964565644535
 20
582.9658116840946
 30
0.0
 11
317.1492147801182
 21
582.9658116840946
 31
0.0
  0
LINE
  5
B1
330
48
100
AcDbEntity
  8
LINEA-SPESSA
100
AcDbLine
 10
311.242862175437
 20
315.4850964135403
 30
0.0
 11
345.3333425124874
 21
315.4850964135403
 31
0.0
  0
LINE
  5
B2
330
48
100
AcDbEntity
  8
LINEA-SPESSA
100
AcDbLine
 10
131.6369245009118
 20
56.68151257706631
 30
0.0
 11
153.6304562682489
 21
34.68798080973647
 31
0.0
  0
LINE
  5
B3
330
48
100
AcDbEntity
  8
LINEA-SPESSA
100
AcDbLine
 10
153.6304562682489
 20
34.68798080973647
 30
0.0
 11
268.0139382427587
 21
34.68798080973647
 31
0.0
  0
LINE
  5
B4
330
48
100
AcDbEntity
  8
LINEA-SPESSA
100
AcDbLine
 10
290.0074700100958
 20
56.68151257706631
 30
0.0
 11
268.0139382427587
 21
34.68798080973647
 31
0.0
  0
LINE
  5
B5
330
48
100
AcDbEntity
  8
LINEA-SPESSA
100
AcDbLine
 10
207.1139788706787
 20
56.68151257706631
 30
0.0
 11
207.1139788706787
 21
139.3816245117777
 31
0.0
  0
LINE
  5
B6
330
48
100
AcDbEntity
  8
LINEA-SPESSA
100
AcDbLine
 10
191.2001291176857
 20
56.68151257706631
 30
0.0
 11
191.2001291176857
 21
139.3816245117777
 31
0.0
  0
LINE
  5
B7
330
48
100
AcDbEntity
  8
LINEA-SPESSA
100
AcDbLine
 10
207.1139788705331
 20
72.5243908975608
 30
0.0
 11
191.2001291176857
 21
72.5243908975608
 31
0.0
  0
LINE
  5
B8
330
48
100
AcDbEntity
  8
LINEA-SPESSA
100
AcDbLine
 10
207.1139788705331
 20
96.36766130248725
 30
0.0
 11
191.2001291176857
 21
96.36766130248725
 31
0.0
  0
LINE
  5
B9
330
48
100
AcDbEntity
  8
LINEA-SPESSA
100
AcDbLine
 10
207.1139788705331
 20
120.2109317074064
 30
0.0
 11
191.2001291176857
 21
120.2109317074064
 31
0.0
  0
LINE
  5
BA
330
48
100
AcDbEntity
  8
LINEA-SPESSA
100
AcDbLine
 10
223.0278286235261
 20
56.68151257706631
 30
0.0
 11
223.0278286235261
 21
139.3816245117777
 31
0.0
  0
LINE
  5
BB
330
48
100
AcDbEntity
  8
LINEA-SPESSA
100
AcDbLine
 10
223.027828623366
 20
61.09980024014658
 30
0.0
 11
207.1139788705331
 21
61.09980024014658
 31
0.0
  0
LINE
  5
BC
330
48
100
AcDbEntity
  8
LINEA-SPESSA
100
AcDbLine
 10
223.027828623366
 20
84.94307064506575
 30
0.0
 11
207.1139788705331
 21
84.94307064506575
 31
0.0
  0
LINE
  5
BD
330
48
100
AcDbEntity
  8
LINEA-SPESSA
100
AcDbLine
 10
223.027828623366
 20
108.7863410499921
 30
0.0
 11
207.1139788705331
 21
108.7863410499921
 31
0.0
  0
LINE
  5
BE
330
48
100
AcDbEntity
  8
LINEA-SPESSA
100
AcDbLine
 10
223.027828623366
 20
132.6296114549113
 30
0.0
 11
207.1139788705331
 21
132.6296114549113
 31
0.0
  0
LINE
  5
BF
330
48
100
AcDbEntity
  8
LINEA-SPESSA
100
AcDbLine
 10
238.9416783765191
 20
56.68151257706631
 30
0.0
 11
238.9416783765191
 21
139.3816245117777
 31
0.0
  0
LINE
  5
C0
330
48
100
AcDbEntity
  8
LINEA-SPESSA
100
AcDbLine
 10
223.0278286235261
 20
56.68151257706631
 30
0.0
 11
223.0278286235261
 21
139.3816245117777
 31
0.0
  0
LINE
  5
C1
330
48
100
AcDbEntity
  8
LINEA-SPESSA
100
AcDbLine
 10
238.941678376359
 20
72.5243908975608
 30
0.0
 11
223.0278286235261
 21
72.5243908975608
 31
0.0
  0
LINE
  5
C2
330
48
100
AcDbEntity
  8
LINEA-SPESSA
100
AcDbLine
 10
238.941678376359
 20
96.36766130248725
 30
0.0
 11
223.0278286235261
 21
96.36766130248725
 31
0.0
  0
LINE
  5
C3
330
48
100
AcDbEntity
  8
LINEA-SPESSA
100
AcDbLine
 10
238.941678376359
 20
120.2109317074064
 30
0.0
 11
223.0278286235261
 21
120.2109317074064
 31
0.0
  0
LINE
  5
C4
330
48
100
AcDbEntity
  8
LINEA-SPESSA
100
AcDbLine
 10
254.855528129352
 20
56.68151257706631
 30
0.0
 11
254.855528129352
 21
139.3816245117777
 31
0.0
  0
LINE
  5
C5
330
48
100
AcDbEntity
  8
LINEA-SPESSA
100
AcDbLine
 10
254.8555281292065
 20
61.09980024014658
 30
0.0
 11
238.941678376359
 21
61.09980024014658
 31
0.0
  0
LINE
  5
C6
330
48
100
AcDbEntity
  8
LINEA-SPESSA
100
AcDbLine
 10
254.8555281292065
 20
84.94307064506575
 30
0.0
 11
238.941678376359
 21
84.94307064506575
 31
0.0
  0
LINE
  5
C7
330
48
100
AcDbEntity
  8
LINEA-SPESSA
100
AcDbLine
 10
254.8555281292065
 20
108.7863410499921
 30
0.0
 11
238.941678376359
 21
108.7863410499921
 31
0.0
  0
LINE
  5
C8
330
48
100
AcDbEntity
  8
LINEA-SPESSA
100
AcDbLine
 10
254.8555281292065
 20
132.6296114549113
 30
0.0
 11
238.941678376359
 21
132.6296114549113
 31
0.0
  0
LINE
  5
C9
330
48
100
AcDbEntity
  8
LINEA-SPESSA
100
AcDbLine
 10
270.769377882345
 20
56.68151257706631
 30
0.0
 11
270.769377882345
 21
139.3816245117777
 31
0.0
  0
LINE
  5
CA
330
48
100
AcDbEntity
  8
LINEA-SPESSA
100
AcDbLine
 10
254.855528129352
 20
56.68151257706631
 30
0.0
 11
254.855528129352
 21
139.3816245117777
 31
0.0
  0
LINE
  5
CB
330
48
100
AcDbEntity
  8
LINEA-SPESSA
100
AcDbLine
 10
270.7693778821994
 20
72.5243908975608
 30
0.0
 11
254.855528129352
 21
72.5243908975608
 31
0.0
  0
LINE
  5
CC
330
48
100
AcDbEntity
  8
LINEA-SPESSA
100
AcDbLine
 10
270.7693778821994
 20
96.36766130248725
 30
0.0
 11
254.855528129352
 21
96.36766130248725
 31
0.0
  0
LINE
  5
CD
330
48
100
AcDbEntity
  8
LINEA-SPESSA
100
AcDbLine
 10
270.7693778821994
 20
120.2109317074064
 30
0.0
 11
254.855528129352
 21
120.2109317074064
 31
0.0
  0
LINE
  5
CE
330
48
100
AcDbEntity
  8
LINEA-SPESSA
100
AcDbLine
 10
286.6832276351778
 20
56.68151257706631
 30
0.0
 11
286.6832276351778
 21
139.3816245117777
 31
0.0
  0
LINE
  5
CF
330
48
100
AcDbEntity
  8
LINEA-SPESSA
100
AcDbLine
 10
286.6832276350324
 20
61.09980024014658
 30
0.0
 11
270.7693778821994
 21
61.09980024014658
 31
0.0
  0
LINE
  5
D0
330
48
100
AcDbEntity
  8
LINEA-SPESSA
100
AcDbLine
 10
286.6832276350324
 20
84.94307064506575
 30
0.0
 11
270.7693778821994
 21
84.94307064506575
 31
0.0
  0
LINE
  5
D1
330
48
100
AcDbEntity
  8
LINEA-SPESSA
100
AcDbLine
 10
286.6832276350324
 20
108.7863410499921
 30
0.0
 11
270.7693778821994
 21
108.7863410499921
 31
0.0
  0
LINE
  5
D2
330
48
100
AcDbEntity
  8
LINEA-SPESSA
100
AcDbLine
 10
286.6832276350324
 20
132.6296114549113
 30
0.0
 11
270.7693778821994
 21
132.6296114549113
 31
0.0
  0
LINE
  5
D3
330
48
100
AcDbEntity
  8
LINEA-SPESSA
100
AcDbLine
 10
302.5970773881708
 20
56.68151257706631
 30
0.0
 11
302.5970773881708
 21
139.3816245117777
 31
0.0
  0
LINE
  5
D4
330
48
100
AcDbEntity
  8
LINEA-SPESSA
100
AcDbLine
 10
286.6832276351778
 20
56.68151257706631
 30
0.0
 11
286.6832276351778
 21
139.3816245117777
 31
0.0
  0
LINE
  5
D5
330
48
100
AcDbEntity
  8
LINEA-SPESSA
100
AcDbLine
 10
302.5970773880253
 20
72.5243908975608
 30
0.0
 11
286.6832276351778
 21
72.5243908975608
 31
0.0
  0
LINE
  5
D6
330
48
100
AcDbEntity
  8
LINEA-SPESSA
100
AcDbLine
 10
302.5970773880253
 20
96.36766130248725
 30
0.0
 11
286.6832276351778
 21
96.36766130248725
 31
0.0
  0
LINE
  5
D7
330
48
100
AcDbEntity
  8
LINEA-SPESSA
100
AcDbLine
 10
302.5970773880253
 20
120.2109317074064
 30
0.0
 11
286.6832276351778
 21
120.2109317074064
 31
0.0
  0
LINE
  5
D8
330
48
100
AcDbEntity
  8
LINEA-SPESSA
100
AcDbLine
 10
311.242862175437
 20
61.09980024014658
 30
0.0
 11
302.5970773880253
 21
61.09980024014658
 31
0.0
  0
LINE
  5
D9
330
48
100
AcDbEntity
  8
LINEA-SPESSA
100
AcDbLine
 10
311.242862175437
 20
84.94307064506575
 30
0.0
 11
302.5970773880253
 21
84.94307064506575
 31
0.0
  0
LINE
  5
DA
330
48
100
AcDbEntity
  8
LINEA-SPESSA
100
AcDbLine
 10
311.242862175437
 20
108.7863410499921
 30
0.0
 11
302.5970773880253
 21
108.7863410499921
 31
0.0
  0
LINE
  5
DB
330
48
100
AcDbEntity
  8
LINEA-SPESSA
100
AcDbLine
 10
311.242862175437
 20
132.6296114549113
 30
0.0
 11
302.5970773880253
 21
132.6296114549113
 31
0.0
  0
LINE
  5
DC
330
48
100
AcDbEntity
  8
LINEA-SPESSA
100
AcDbLine
 10
143.4585798590269
 20
56.68151257706631
 30
0.0
 11
143.4585798590269
 21
139.3816245117777
 31
0.0
  0
LINE
  5
DD
330
48
100
AcDbEntity
  8
LINEA-SPESSA
100
AcDbLine
 10
127.5447301060339
 20
56.68151257706631
 30
0.0
 11
127.5447301060339
 21
139.3816245117777
 31
0.0
  0
LINE
  5
DE
330
48
100
AcDbEntity
  8
LINEA-SPESSA
100
AcDbLine
 10
143.4585798588668
 20
72.5243908975608
 30
0.0
 11
127.5447301060339
 21
72.5243908975608
 31
0.0
  0
LINE
  5
DF
330
48
100
AcDbEntity
  8
LINEA-SPESSA
100
AcDbLine
 10
143.4585798588668
 20
96.36766130248725
 30
0.0
 11
127.5447301060339
 21
96.36766130248725
 31
0.0
  0
LINE
  5
E0
330
48
100
AcDbEntity
  8
LINEA-SPESSA
100
AcDbLine
 10
143.4585798588668
 20
120.2109317074064
 30
0.0
 11
127.5447301060339
 21
120.2109317074064
 31
0.0
  0
LINE
  5
E1
330
48
100
AcDbEntity
  8
LINEA-SPESSA
100
AcDbLine
 10
159.3724296118598
 20
56.68151257706631
 30
0.0
 11
159.3724296118598
 21
139.3816245117777
 31
0.0
  0
LINE
  5
E2
330
48
100
AcDbEntity
  8
LINEA-SPESSA
100
AcDbLine
 10
159.3724296117143
 20
61.09980024014658
 30
0.0
 11
143.4585798588668
 21
61.09980024014658
 31
0.0
  0
LINE
  5
E3
330
48
100
AcDbEntity
  8
LINEA-SPESSA
100
AcDbLine
 10
159.3724296117143
 20
84.94307064506575
 30
0.0
 11
143.4585798588668
 21
84.94307064506575
 31
0.0
  0
LINE
  5
E4
330
48
100
AcDbEntity
  8
LINEA-SPESSA
100
AcDbLine
 10
159.3724296117143
 20
108.7863410499921
 30
0.0
 11
143.4585798588668
 21
108.7863410499921
 31
0.0
  0
LINE
  5
E5
330
48
100
AcDbEntity
  8
LINEA-SPESSA
100
AcDbLine
 10
159.3724296117143
 20
132.6296114549113
 30
0.0
 11
143.4585798588668
 21
132.6296114549113
 31
0.0
  0
LINE
  5
E6
330
48
100
AcDbEntity
  8
LINEA-SPESSA
100
AcDbLine
 10
175.2862793648528
 20
56.68151257706631
 30
0.0
 11
175.2862793648528
 21
139.3816245117777
 31
0.0
  0
LINE
  5
E7
330
48
100
AcDbEntity
  8
LINEA-SPESSA
100
AcDbLine
 10
159.3724296118598
 20
56.68151257706631
 30
0.0
 11
159.3724296118598
 21
139.3816245117777
 31
0.0
  0
LINE
  5
E8
330
48
100
AcDbEntity
  8
LINEA-SPESSA
100
AcDbLine
 10
175.2862793647073
 20
72.5243908975608
 30
0.0
 11
159.3724296118598
 21
72.5243908975608
 31
0.0
  0
LINE
  5
E9
330
48
100
AcDbEntity
  8
LINEA-SPESSA
100
AcDbLine
 10
175.2862793647073
 20
96.36766130248725
 30
0.0
 11
159.3724296118598
 21
96.36766130248725
 31
0.0
  0
LINE
  5
EA
330
48
100
AcDbEntity
  8
LINEA-SPESSA
100
AcDbLine
 10
175.2862793647073
 20
120.2109317074064
 30
0.0
 11
159.3724296118598
 21
120.2109317074064
 31
0.0
  0
LINE
  5
EB
330
48
100
AcDbEntity
  8
LINEA-SPESSA
100
AcDbLine
 10
191.2001291176857
 20
56.68151257706631
 30
0.0
 11
191.2001291176857
 21
139.3816245117777
 31
0.0
  0
LINE
  5
EC
330
48
100
AcDbEntity
  8
LINEA-SPESSA
100
AcDbLine
 10
191.2001291175402
 20
61.09980024014658
 30
0.0
 11
175.2862793647073
 21
61.09980024014658
 31
0.0
  0
LINE
  5
ED
330
48
100
AcDbEntity
  8
LINEA-SPESSA
100
AcDbLine
 10
191.2001291175402
 20
84.94307064506575
 30
0.0
 11
175.2862793647073
 21
84.94307064506575
 31
0.0
  0
LINE
  5
EE
330
48
100
AcDbEntity
  8
LINEA-SPESSA
100
AcDbLine
 10
191.2001291175402
 20
108.7863410499921
 30
0.0
 11
175.2862793647073
 21
108.7863410499921
 31
0.0
  0
LINE
  5
EF
330
48
100
AcDbEntity
  8
LINEA-SPESSA
100
AcDbLine
 10
191.2001291175402
 20
132.6296114549113
 30
0.0
 11
175.2862793647073
 21
132.6296114549113
 31
0.0
  0
LINE
  5
F0
330
48
100
AcDbEntity
  8
LINEA-SPESSA
100
AcDbLine
 10
191.2001291176857
 20
56.68151257706631
 30
0.0
 11
191.2001291176857
 21
139.3816245117777
 31
0.0
  0
LINE
  5
F1
330
48
100
AcDbEntity
  8
LINEA-SPESSA
100
AcDbLine
 10
127.5447301058739
 20
61.09980024014658
 30
0.0
 11
111.630880353041
 21
61.09980024014658
 31
0.0
  0
LINE
  5
F2
330
48
100
AcDbEntity
  8
LINEA-SPESSA
100
AcDbLine
 10
127.5447301058739
 20
84.94307064506575
 30
0.0
 11
111.630880353041
 21
84.94307064506575
 31
0.0
  0
LINE
  5
F3
330
48
100
AcDbEntity
  8
LINEA-SPESSA
100
AcDbLine
 10
127.5447301058739
 20
108.7863410499921
 30
0.0
 11
111.630880353041
 21
108.7863410499921
 31
0.0
  0
LINE
  5
F4
330
48
100
AcDbEntity
  8
LINEA-SPESSA
100
AcDbLine
 10
127.5447301058739
 20
132.6296114549113
 30
0.0
 11
111.630880353041
 21
132.6296114549113
 31
0.0
  0
LINE
  5
F5
330
48
100
AcDbEntity
  8
LINEA-SPESSA
100
AcDbLine
 10
127.5447301060339
 20
56.68151257706631
 30
0.0
 11
127.5447301060339
 21
139.3816245117777
 31
0.0
  0
ENDBLK
  5
F7
330
48
100
AcDbEntity
  8
0
100
AcDbBlockEnd
  0
BLOCK
  5
2B8
330
1CE
100
AcDbEntity
  8
0
100
AcDbBlockBegin
  2
RS300EBLUU
 70
     0
 10
0.0
 20
0.0
 30
0.0
  3
RS300EBLUU
  1

  0
LINE
  5
1CF
330
1CE
100
AcDbEntity
  8
LINEA-SPESSA
100
AcDbLine
 10
1704.666744614194
 20
156.5000000031868
 30
0.0
 11
1595.310505901972
 21
156.5000000031868
 31
0.0
  0
LINE
  5
1D0
330
1CE
100
AcDbEntity
  8
LINEA-SPESSA
100
AcDbLine
 10
1595.310505901972
 20
156.5000000031868
 30
0.0
 11
1595.310505901972
 21
-156.4999999968131
 31
0.0
  0
LINE
  5
1D1
330
1CE
100
AcDbEntity
  8
LINEA-SPESSA
100
AcDbLine
 10
1595.310505901972
 20
-156.4999999968131
 30
0.0
 11
1704.666744614194
 21
-156.4999999968131
 31
0.0
  0
LINE
  5
1D2
330
1CE
100
AcDbEntity
  8
LINEA-SPESSA
100
AcDbLine
 10
1704.666744614194
 20
-156.4999999968131
 30
0.0
 11
1704.666744614194
 21
156.5000000031868
 31
0.0
  0
LINE
  5
1D3
330
1CE
100
AcDbEntity
  8
LINEA-SPESSA
100
AcDbLine
 10
1704.666744614194
 20
156.5000000031868
 30
0.0
 11
1755.688796406422
 21
133.1202899068739
 31
0.0
  0
LINE
  5
1D4
330
1CE
100
AcDbEntity
  8
LINEA-SPESSA
100
AcDbLine
 10
1755.688796406422
 20
133.1202899068739
 30
0.0
 11
1755.688796406422
 21
-133.1202899005074
 31
0.0
  0
LINE
  5
1D5
330
1CE
100
AcDbEntity
  8
LINEA-SPESSA
100
AcDbLine
 10
1704.666744614194
 20
-156.4999999968131
 30
0.0
 11
1755.688796406422
 21
-133.1202899005074
 31
0.0
  0
LINE
  5
1D6
330
1CE
100
AcDbEntity
  8
LINEA-SPESSA
100
AcDbLine
 10
1776.919327357885
 20
113.7876998760257
 30
0.0
 11
1846.0
 21
113.7876998761057
 31
0.0
  0
LINE
  5
1D7
330
1CE
100
AcDbEntity
  8
LINEA-SPESSA
100
AcDbLine
 10
1846.0
 20
113.7876998761057
 30
0.0
 11
1845.99999999984
 21
74.57548478388344
 31
0.0
  0
LINE
  5
1D8
330
1CE
100
AcDbEntity
  8
LINEA-SPESSA
100
AcDbLine
 10
1755.688796406422
 20
123.5185516258207
 30
0.0
 11
1776.919327357885
 21
123.5185516258207
 31
0.0
  0
LINE
  5
1D9
330
1CE
100
AcDbEntity
  8
LINEA-SPESSA
100
AcDbLine
 10
1776.919327357885
 20
123.5185516258207
 30
0.0
 11
1776.919327357885
 21
-123.5185516195269
 31
0.0
  0
LINE
  5
1DA
330
1CE
100
AcDbEntity
  8
LINEA-SPESSA
100
AcDbLine
 10
1755.688796406422
 20
-123.5185516194542
 30
0.0
 11
1776.919327357885
 21
-123.5185516195269
 31
0.0
  0
LINE
  5
1DB
330
1CE
100
AcDbEntity
  8
LINEA-SPESSA
100
AcDbLine
 10
1845.99999999984
 20
93.65415165986632
 30
0.0
 11
1776.919327357885
 21
93.65415165986632
 31
0.0
  0
LINE
  5
1DC
330
1CE
100
AcDbEntity
  8
LINEA-SPESSA
100
AcDbLine
 10
1845.99999999984
 20
74.5754847838034
 30
0.0
 11
1776.919327357885
 21
74.57548478388344
 31
0.0
  0
LINE
  5
1DD
330
1CE
100
AcDbEntity
  8
LINEA-SPESSA
100
AcDbLine
 10
1845.99999999984
 20
41.66833504311944
 30
0.0
 11
1776.919327357885
 21
41.6683350430394
 31
0.0
  0
LINE
  5
1DE
330
1CE
100
AcDbEntity
  8
LINEA-SPESSA
100
AcDbLine
 10
1845.99999999984
 20
22.58966816706379
 30
0.0
 11
1776.919327357885
 21
22.58966816706379
 31
0.0
  0
LINE
  5
1DF
330
1CE
100
AcDbEntity
  8
LINEA-SPESSA
100
AcDbLine
 10
1845.99999999984
 20
-22.58966816122119
 30
0.0
 11
1776.919327357885
 21
-22.58966816122119
 31
0.0
  0
LINE
  5
1E0
330
1CE
100
AcDbEntity
  8
LINEA-SPESSA
100
AcDbLine
 10
1845.99999999984
 20
-41.66833503713132
 30
0.0
 11
1776.919327357885
 21
-41.66833503720408
 31
0.0
  0
LINE
  5
1E1
330
1CE
100
AcDbEntity
  8
LINEA-SPESSA
100
AcDbLine
 10
1845.99999999984
 20
-74.57548477796809
 30
0.0
 11
1776.919327357885
 21
-74.57548477796809
 31
0.0
  0
LINE
  5
1E2
330
1CE
100
AcDbEntity
  8
LINEA-SPESSA
100
AcDbLine
 10
1845.99999999984
 20
-93.65415165395097
 30
0.0
 11
1776.919327357885
 21
-93.65415165395097
 31
0.0
  0
LINE
  5
1E3
330
1CE
100
AcDbEntity
  8
LINEA-SPESSA
100
AcDbLine
 10
1846.0
 20
-113.5109666683711
 30
0.0
 11
1776.919327357885
 21
-113.5109666684511
 31
0.0
  0
LINE
  5
1E4
330
1CE
100
AcDbEntity
  8
LINEA-SPESSA
100
AcDbLine
 10
1845.999999999694
 20
41.6683350430394
 30
0.0
 11
1845.999999999694
 21
22.58966816706379
 31
0.0
  0
LINE
  5
1E5
330
1CE
100
AcDbEntity
  8
LINEA-SPESSA
100
AcDbLine
 10
1845.999999999694
 20
-22.58966816122119
 30
0.0
 11
1845.999999999534
 21
-41.66833503720408
 31
0.0
  0
LINE
  5
1E6
330
1CE
100
AcDbEntity
  8
LINEA-SPESSA
100
AcDbLine
 10
1845.999999999694
 20
-74.57548477796809
 30
0.0
 11
1845.99999999984
 21
-113.5109666683711
 31
0.0
  0
LINE
  5
1E7
330
1CE
100
AcDbEntity
  8
LINEA-SPESSA
100
AcDbLine
 10
1835.375684852028
 20
74.5754847838034
 30
0.0
 11
1835.375684852028
 21
41.66833504311944
 31
0.0
  0
LINE
  5
1E8
330
1CE
100
AcDbEntity
  8
LINEA-SPESSA
100
AcDbLine
 10
1835.375684852028
 20
-74.57548477743694
 30
0.0
 11
1835.375684852028
 21
-41.6683350367457
 31
0.0
  0
LINE
  5
1E9
330
1CE
100
AcDbEntity
  8
LINEA-SPESSA
100
AcDbLine
 10
1835.375684852028
 20
22.58966816706379
 30
0.0
 11
1835.375684852028
 21
-22.58966816122119
 31
0.0
  0
LINE
  5
1EA
330
1CE
100
AcDbEntity
  8
LINEA-SPESSA
100
AcDbLine
 10
1595.310505901972
 20
153.3889525853155
 30
0.0
 11
1369.700855769319
 21
153.3889525853155
 31
0.0
  0
LINE
  5
1EB
330
1CE
100
AcDbEntity
  8
LINEA-SPESSA
100
AcDbLine
 10
1324.99999999984
 20
156.5000000031868
 30
0.0
 11
1369.700855769319
 21
156.5000000031868
 31
0.0
  0
LINE
  5
1EC
330
1CE
100
AcDbEntity
  8
LINEA-SPESSA
100
AcDbLine
 10
1369.700855769319
 20
156.5000000031868
 30
0.0
 11
1369.700855769319
 21
-156.4999999968131
 31
0.0
  0
LINE
  5
1ED
330
1CE
100
AcDbEntity
  8
LINEA-SPESSA
100
AcDbLine
 10
1369.700855769319
 20
-156.4999999968131
 30
0.0
 11
1325.0
 21
-156.4999999968131
 31
0.0
  0
LINE
  5
1EE
330
1CE
100
AcDbEntity
  8
LINEA-SPESSA
100
AcDbLine
 10
1595.310505901972
 20
-153.3889525789491
 30
0.0
 11
1369.700855769319
 21
-153.3889525789491
 31
0.0
  0
LINE
  5
1EF
330
1CE
100
AcDbEntity
  8
LINEA-SPESSA
100
AcDbLine
 10
1325.0
 20
0.0000000031868694
 30
0.0
 11
1325.0
 21
-207.716403390732
 31
0.0
  0
LINE
  5
1F0
330
1CE
100
AcDbEntity
  8
LINEA-SPESSA
100
AcDbLine
 10
1325.0
 20
-207.716403390732
 30
0.0
 11
1303.221963881136
 21
-207.716403390732
 31
0.0
  0
LINE
  5
1F1
330
1CE
100
AcDbEntity
  8
LINEA-SPESSA
100
AcDbLine
 10
1303.221963881136
 20
0.0000000031868694
 30
0.0
 11
1303.221963881136
 21
-207.716403390732
 31
0.0
  0
LINE
  5
1F2
330
1CE
100
AcDbEntity
  8
LINEA-SPESSA
100
AcDbLine
 10
940.6189880586461
 20
-123.0990580802317
 30
0.0
 11
940.6189880584861
 21
0.0000000031868694
 31
0.0
  0
LINE
  5
1F3
330
1CE
100
AcDbEntity
  8
LINEA-SPESSA
100
AcDbLine
 10
940.6189880586461
 20
-123.0990580802317
 30
0.0
 11
940.6189880586461
 21
-184.1329164376366
 31
0.0
  0
LINE
  5
1F4
330
1CE
100
AcDbEntity
  8
LINEA-SPESSA
100
AcDbLine
 10
975.9599809082866
 20
0.0000000031868694
 30
0.0
 11
975.9599809084321
 21
-122.7394980902536
 31
0.0
  0
LINE
  5
1F5
330
1CE
100
AcDbEntity
  8
LINEA-SPESSA
100
AcDbLine
 10
940.6189880586461
 20
-184.1329164376366
 30
0.0
 11
961.5963354605629
 21
-184.1329164377093
 31
0.0
  0
LINE
  5
1F6
330
1CE
100
AcDbEntity
  8
LINEA-SPESSA
100
AcDbLine
 10
961.5963354604028
 20
-184.1329164377093
 30
0.0
 11
975.9599809085921
 21
-184.1329164377093
 31
0.0
  0
LINE
  5
1F7
330
1CE
100
AcDbEntity
  8
LINEA-SPESSA
100
AcDbLine
 10
975.9599809085921
 20
-170.2838557921058
 30
0.0
 11
1303.221963881136
 21
-170.2838557921058
 31
0.0
  0
LINE
  5
1F8
330
1CE
100
AcDbEntity
  8
LINEA-SPESSA
100
AcDbLine
 10
961.5963354602572
 20
0.0000000031868694
 30
0.0
 11
961.5963354605629
 21
-184.1329164377093
 31
0.0
  0
CIRCLE
  5
1F9
330
1CE
100
AcDbEntity
  8
LINEA-SPESSA
100
AcDbCircle
 10
1360.756695451578
 20
117.4074419305907
 30
0.0
 40
3.003799886112834
  0
CIRCLE
  5
1FA
330
1CE
100
AcDbEntity
  8
LINEA-SPESSA
100
AcDbCircle
 10
1611.497117749153
 20
113.514139944702
 30
0.0
 40
3.003799886112834
  0
CIRCLE
  5
1FB
330
1CE
100
AcDbEntity
  8
LINEA-SPESSA
100
AcDbCircle
 10
1360.756695451578
 20
-117.4074419242169
 30
0.0
 40
3.003799886112834
  0
CIRCLE
  5
1FC
330
1CE
100
AcDbEntity
  8
LINEA-SPESSA
100
AcDbCircle
 10
1611.497117749153
 20
-113.5141399383355
 30
0.0
 40
3.003799886112834
  0
LWPOLYLINE
  5
1FD
330
1CE
100
AcDbEntity
  8
LINEA-SPESSA
100
AcDbPolyline
 90
        2
 70
     0
 43
0.0
 10
1013.548662197572
 20
-132.9556988634431
 10
969.083240116277
 20
-132.9556988634431
  0
LINE
  5
1FE
330
1CE
100
AcDbEntity
  8
LINEA-SPESSA
100
AcDbLine
 10
975.9599809084321
 20
-132.9556988634212
 30
0.0
 11
975.9599809085921
 21
-184.1329164377093
 31
0.0
  0
ARC
  5
1FF
330
1CE
100
AcDbEntity
  8
LINEA-SPESSA
100
AcDbCircle
 10
1013.548662197747
 20
-127.8475984768374
 30
0.0
 40
5.10810038658642
100
AcDbArc
 50
270.0
 51
90.0
  0
ARC
  5
200
330
1CE
100
AcDbEntity
  8
LINEA-SPESSA
100
AcDbCircle
 10
969.0832401163788
 20
-127.8475984768374
 30
0.0
 40
5.10810038658642
100
AcDbArc
 50
90.0
 51
270.0
  0
LWPOLYLINE
  5
201
330
1CE
100
AcDbEntity
  8
LINEA-SPESSA
100
AcDbPolyline
 90
        2
 70
     0
 43
0.0
 10
969.083240116277
 20
-122.7394980902463
 10
1013.548662197572
 20
-122.7394980902463
  0
LINE
  5
202
330
1CE
100
AcDbEntity
  8
LINEA-SPESSA
100
AcDbLine
 10
975.9599809084321
 20
-142.734069784703
 30
0.0
 11
1303.221963881296
 21
-142.734069784703
 31
0.0
  0
ARC
  5
203
330
1CE
100
AcDbEntity
  8
LINEA-SPESSA
100
AcDbCircle
 10
968.5547901179671
 20
6491.089921433871
 30
0.0
 40
6606.700121656281
100
AcDbArc
 50
270.0642206036487
 51
272.9036018363998
  0
LINE
  5
204
330
1CE
100
AcDbEntity
  8
LINEA-SPESSA
100
AcDbLine
 10
1010.856501664005
 20
-115.4747730721646
 30
0.0
 11
1010.856501664005
 21
0.0000000031868694
 31
0.0
  0
LINE
  5
205
330
1CE
100
AcDbEntity
  8
LINEA-SPESSA
100
AcDbLine
 10
1074.559658456099
 20
-142.734069784703
 30
0.0
 11
1074.559658456099
 21
-170.2838557921058
 31
0.0
  0
LINE
  5
206
330
1CE
100
AcDbEntity
  8
LINEA-SPESSA
100
AcDbLine
 10
1095.435671222861
 20
-142.734069784703
 30
0.0
 11
1095.435671222861
 21
-170.2838557921058
 31
0.0
  0
LINE
  5
207
330
1CE
100
AcDbEntity
  8
LINEA-SPESSA
100
AcDbLine
 10
1325.0
 20
0.0000000031868694
 30
0.0
 11
1325.0
 21
207.7164033971057
 31
0.0
  0
LINE
  5
208
330
1CE
100
AcDbEntity
  8
LINEA-SPESSA
100
AcDbLine
 10
1325.0
 20
207.7164033971057
 30
0.0
 11
1303.221963881136
 21
207.7164033971057
 31
0.0
  0
LINE
  5
209
330
1CE
100
AcDbEntity
  8
LINEA-SPESSA
100
AcDbLine
 10
1303.221963881136
 20
0.0000000031868694
 30
0.0
 11
1303.221963881136
 21
207.7164033971057
 31
0.0
  0
LINE
  5
20A
330
1CE
100
AcDbEntity
  8
LINEA-SPESSA
100
AcDbLine
 10
940.6189880586461
 20
123.0990580865982
 30
0.0
 11
940.6189880584861
 21
0.0000000031868694
 31
0.0
  0
LINE
  5
20B
330
1CE
100
AcDbEntity
  8
LINEA-SPESSA
100
AcDbLine
 10
940.6189880586461
 20
123.0990580865982
 30
0.0
 11
940.6189880586461
 21
184.1329164440103
 31
0.0
  0
LINE
  5
20C
330
1CE
100
AcDbEntity
  8
LINEA-SPESSA
100
AcDbLine
 10
975.9599809082866
 20
0.0000000031868694
 30
0.0
 11
975.9599809084321
 21
122.73949809662
 31
0.0
  0
LINE
  5
20D
330
1CE
100
AcDbEntity
  8
LINEA-SPESSA
100
AcDbLine
 10
940.6189880586461
 20
184.1329164440103
 30
0.0
 11
961.5963354605629
 21
184.132916444083
 31
0.0
  0
LINE
  5
20E
330
1CE
100
AcDbEntity
  8
LINEA-SPESSA
100
AcDbLine
 10
961.5963354604028
 20
184.132916444083
 30
0.0
 11
975.9599809085921
 21
184.132916444083
 31
0.0
  0
LINE
  5
20F
330
1CE
100
AcDbEntity
  8
LINEA-SPESSA
100
AcDbLine
 10
975.9599809085921
 20
170.2838557984723
 30
0.0
 11
1303.221963881136
 21
170.2838557984723
 31
0.0
  0
LINE
  5
210
330
1CE
100
AcDbEntity
  8
LINEA-SPESSA
100
AcDbLine
 10
961.5963354602572
 20
0.0000000031868694
 30
0.0
 11
961.5963354605629
 21
184.132916444083
 31
0.0
  0
LWPOLYLINE
  5
211
330
1CE
100
AcDbEntity
  8
LINEA-SPESSA
100
AcDbPolyline
 90
        2
 70
     0
 43
0.0
 10
1013.548662197572
 20
132.9556988697586
 10
969.083240116277
 20
132.9556988697586
  0
LINE
  5
212
330
1CE
100
AcDbEntity
  8
LINEA-SPESSA
100
AcDbLine
 10
975.9599809084321
 20
132.955698869795
 30
0.0
 11
975.9599809085921
 21
184.132916444083
 31
0.0
  0
ARC
  5
213
330
1CE
100
AcDbEntity
  8
LINEA-SPESSA
100
AcDbCircle
 10
1013.548662197747
 20
127.8475984832039
 30
0.0
 40
5.10810038658642
100
AcDbArc
 50
270.0
 51
90.0
  0
ARC
  5
214
330
1CE
100
AcDbEntity
  8
LINEA-SPESSA
100
AcDbCircle
 10
969.0832401163788
 20
127.8475984832039
 30
0.0
 40
5.10810038658642
100
AcDbArc
 50
90.0
 51
270.0
  0
LWPOLYLINE
  5
215
330
1CE
100
AcDbEntity
  8
LINEA-SPESSA
100
AcDbPolyline
 90
        2
 70
     0
 43
0.0
 10
969.083240116277
 20
122.73949809662
 10
1013.548662197572
 20
122.73949809662
  0
LINE
  5
216
330
1CE
100
AcDbEntity
  8
LINEA-SPESSA
100
AcDbLine
 10
975.9599809084321
 20
142.7340697910767
 30
0.0
 11
1303.221963881296
 21
142.7340697910767
 31
0.0
  0
ARC
  5
217
330
1CE
100
AcDbEntity
  8
LINEA-SPESSA
100
AcDbCircle
 10
968.5547901179671
 20
-6491.089921427498
 30
0.0
 40
6606.700121656281
100
AcDbArc
 50
87.09639816360022
 51
89.93577939635127
  0
LINE
  5
218
330
1CE
100
AcDbEntity
  8
LINEA-SPESSA
100
AcDbLine
 10
1010.856501664005
 20
115.4747730785384
 30
0.0
 11
1010.856501664005
 21
0.0000000031868694
 31
0.0
  0
CIRCLE
  5
219
330
1CE
100
AcDbEntity
  8
LINEA-SPESSA
100
AcDbCircle
 10
1257.647626661593
 20
0.0000000031868694
 30
0.0
 40
16.82876450953629
  0
CIRCLE
  5
21A
330
1CE
100
AcDbEntity
  8
LINEA-SPESSA
100
AcDbCircle
 10
1159.223667682672
 20
0.0000000031868694
 30
0.0
 40
10.10956305755436
  0
LINE
  5
21B
330
1CE
100
AcDbEntity
  8
LINEA-SPESSA
100
AcDbLine
 10
1240.818862152053
 20
0.0000000031868694
 30
0.0
 11
1169.33323074023
 21
0.0000000031868694
 31
0.0
  0
LINE
  5
21C
330
1CE
100
AcDbEntity
  8
LINEA-SPESSA
100
AcDbLine
 10
1262.512767153006
 20
-170.2838557921058
 30
0.0
 11
1262.512767153006
 21
-191.8181798878431
 31
0.0
  0
LINE
  5
21D
330
1CE
100
AcDbEntity
  8
LINEA-SPESSA
100
AcDbLine
 10
1262.512767153006
 20
-191.8181798878431
 30
0.0
 11
1237.63942645723
 21
-191.8181798878431
 31
0.0
  0
LINE
  5
21E
330
1CE
100
AcDbEntity
  8
LINEA-SPESSA
100
AcDbLine
 10
1237.63942645723
 20
-191.8181798878431
 30
0.0
 11
1237.63942645723
 21
-170.2838557921058
 31
0.0
  0
LINE
  5
21F
330
1CE
100
AcDbEntity
  8
LINEA-SPESSA
100
AcDbLine
 10
1220.157045923319
 20
-170.2838557921058
 30
0.0
 11
1220.157045923319
 21
-183.7736972094207
 31
0.0
  0
LINE
  5
220
330
1CE
100
AcDbEntity
  8
LINEA-SPESSA
100
AcDbLine
 10
1220.157045923319
 20
-183.7736972094207
 30
0.0
 11
1210.534567743103
 21
-183.7736972094207
 31
0.0
  0
LINE
  5
221
330
1CE
100
AcDbEntity
  8
LINEA-SPESSA
100
AcDbLine
 10
1210.534567743103
 20
-183.7736972094207
 30
0.0
 11
1210.534567743103
 21
-170.2838557921058
 31
0.0
  0
LWPOLYLINE
  5
222
330
1CE
100
AcDbEntity
  8
LINEA-SPESSA
100
AcDbPolyline
 90
        4
 70
     1
 43
0.0
 10
961.5963354602282
 20
-193.1291060371004
 10
1083.301387737068
 20
-193.1291060371004
 10
1083.301387737068
 20
-186.9979500655463
 10
961.5963354602282
 20
-186.9979500655463
  0
LWPOLYLINE
  5
223
330
1CE
100
AcDbEntity
  8
LINEA-SPESSA
100
AcDbPolyline
 90
        4
 70
     1
 43
0.0
 10
1046.47271620811
 20
-193.1291060371004
 10
997.3685395212669
 20
-193.1291060371004
 10
997.3685395212669
 20
-234.4353277511109
 10
1046.47271620811
 20
-234.4353277511109
  0
LWPOLYLINE
  5
224
330
1CE
100
AcDbEntity
  8
LINEA-SPESSA
100
AcDbPolyline
 90
        4
 70
     1
 43
0.0
 10
1073.48702056802
 20
-193.1291060371004
 10
1096.165824013325
 20
-193.1291060371004
 10
1096.165824013325
 20
-215.807909482406
 10
1073.48702056802
 20
-215.807909482406
  0
LINE
  5
225
330
1CE
100
AcDbEntity
  8
LINEA-SPESSA
100
AcDbLine
 10
1089.777102102918
 20
-193.1291060371077
 30
0.0
 11
1089.777102102918
 21
-170.2838557921058
 31
0.0
  0
LINE
  5
226
330
1CE
100
AcDbEntity
  8
LINEA-SPESSA
100
AcDbLine
 10
1054.307823917464
 20
-186.9979500655172
 30
0.0
 11
1054.307823917464
 21
-170.2838557921058
 31
0.0
  0
LINE
  5
227
330
1CE
100
AcDbEntity
  8
LINEA-SPESSA
100
AcDbLine
 10
997.3685395214124
 20
-224.2847501876094
 30
0.0
 11
977.3085939719312
 21
-224.2847501876094
 31
0.0
  0
LINE
  5
228
330
1CE
100
AcDbEntity
  8
LINEA-SPESSA
100
AcDbLine
 10
977.3085939719312
 20
-224.2847501876094
 30
0.0
 11
977.3085939719312
 21
-215.0580243726581
 31
0.0
  0
LINE
  5
229
330
1CE
100
AcDbEntity
  8
LINEA-SPESSA
100
AcDbLine
 10
977.3085939719312
 20
-215.0580243726581
 30
0.0
 11
966.3224103360553
 21
-215.0580243726581
 31
0.0
  0
LINE
  5
22A
330
1CE
100
AcDbEntity
  8
LINEA-SPESSA
100
AcDbLine
 10
966.3224103360553
 20
-215.0580243726581
 30
0.0
 11
966.3224103360553
 21
-193.1291060371077
 31
0.0
  0
LINE
  5
22B
330
1CE
100
AcDbEntity
  8
LINEA-SPESSA
100
AcDbLine
 10
940.6189880586461
 20
184.1329164440103
 30
0.0
 11
940.6189880586461
 21
210.8858237519962
 31
0.0
  0
LINE
  5
22C
330
1CE
100
AcDbEntity
  8
LINEA-SPESSA
100
AcDbLine
 10
940.6189880586461
 20
210.8858237519962
 30
0.0
 11
991.9600729036757
 21
210.8858237519962
 31
0.0
  0
LINE
  5
22D
330
1CE
100
AcDbEntity
  8
LINEA-SPESSA
100
AcDbLine
 10
991.9600729036757
 20
210.8858237519962
 30
0.0
 11
991.9600729036757
 21
170.2838557984723
 31
0.0
  0
LWPOLYLINE
  5
22E
330
1CE
100
AcDbEntity
  8
LINEA-SPESSA
100
AcDbPolyline
 90
        4
 70
     1
 43
0.0
 10
1166.642656572657
 20
170.283855798465
 10
1126.949664573214
 20
170.283855798465
 10
1126.949664573214
 20
181.1364644773275
 10
1166.642656572657
 20
181.1364644773275
  0
LWPOLYLINE
  5
22F
330
1CE
100
AcDbEntity
  8
LINEA-SPESSA
100
AcDbPolyline
 90
        4
 70
     1
 43
0.0
 10
1259.207533218228
 20
170.2838557984068
 10
1239.374862136348
 20
170.2838557984068
 10
1239.374862136348
 20
190.116526880287
 10
1259.207533218228
 20
190.116526880287
  0
LWPOLYLINE
  5
230
330
1CE
100
AcDbEntity
  8
LINEA-SPESSA
100
AcDbPolyline
 90
        4
 70
     1
 43
0.0
 10
1052.267116859817
 20
170.283855798465
 10
1004.580547030578
 20
170.283855798465
 10
1004.580547030578
 20
182.9006009183212
 10
1052.267116859817
 20
182.9006009183212
  0
LINE
  5
231
330
1CE
100
AcDbEntity
  8
LINEA-SPESSA
100
AcDbLine
 10
1113.455987743422
 20
170.2838557984723
 30
0.0
 11
1113.455987743422
 21
225.7106226375908
 31
0.0
  0
LINE
  5
232
330
1CE
100
AcDbEntity
  8
LINEA-SPESSA
100
AcDbLine
 10
1123.920220600644
 20
236.1748554948062
 30
0.0
 11
1194.535738988794
 21
236.1748554947335
 31
0.0
  0
LINE
  5
233
330
1CE
100
AcDbEntity
  8
LINEA-SPESSA
100
AcDbLine
 10
1204.999971846016
 20
225.7106226375108
 30
0.0
 11
1204.999971846016
 21
170.2838557984723
 31
0.0
  0
ARC
  5
234
330
1CE
100
AcDbEntity
  8
LINEA-SPESSA
100
AcDbCircle
 10
1123.920220600644
 20
225.7106226375908
 30
0.0
 40
10.46423285721732
100
AcDbArc
 50
90.0
 51
180.0
  0
ARC
  5
235
330
1CE
100
AcDbEntity
  8
LINEA-SPESSA
100
AcDbCircle
 10
1194.535738988794
 20
225.7106226375108
 30
0.0
 40
10.46423285721732
100
AcDbArc
 50
0.0
 51
90.0
  0
LINE
  5
236
330
1CE
100
AcDbEntity
  8
LINEA-SPESSA
100
AcDbLine
 10
25.12236517031851
 20
255.5670266317684
 30
0.0
 11
224.9539110858895
 21
256.366296818247
 31
0.0
  0
ARC
  5
237
330
1CE
100
AcDbEntity
  8
LINEA-SPESSA
100
AcDbCircle
 10
1316.554094092265
 20
-0.3996350900561083
 30
0.0
 40
1316.554154746143
100
AcDbArc
 50
168.7890586578098
 51
179.982608079858
  0
ARC
  5
238
330
1CE
100
AcDbEntity
  8
LINEA-SPESSA
100
AcDbCircle
 10
1210.077861819285
 20
9.555511217484308
 30
0.0
 40
1114.18978904938
100
AcDbArc
 50
167.2440586560032
 51
180.4913859205639
  0
ARC
  5
239
330
1CE
100
AcDbEntity
  8
LINEA-SPESSA
100
AcDbCircle
 10
199.2623114276793
 20
99.12939967103012
 30
0.0
 40
234.0885559176658
100
AcDbArc
 50
112.7089646073437
 51
138.0652422789806
  0
ARC
  5
23A
330
1CE
100
AcDbEntity
  8
LINEA-SPESSA
100
AcDbCircle
 10
220.1202143890696
 20
207.9810431962832
 30
0.0
 40
107.804255947992
100
AcDbArc
 50
96.73876039342694
 51
153.3316728462638
  0
ARC
  5
23B
330
1CE
100
AcDbEntity
  8
LINEA-SPESSA
100
AcDbCircle
 10
157.4812148261553
 20
-1959.531740081314
 30
0.0
 40
2275.121518084585
100
AcDbArc
 50
84.22428626462268
 51
91.223736562479
  0
ARC
  5
23C
330
1CE
100
AcDbEntity
  8
LINEA-SPESSA
100
AcDbCircle
 10
109.0731958928663
 20
-2258.428865332957
 30
0.0
 40
2577.436233451804
100
AcDbArc
 50
71.1782416998565
 51
83.8223048177851
  0
ARC
  5
23D
330
1CE
100
AcDbEntity
  8
LINEA-SPESSA
100
AcDbCircle
 10
223.9522272692702
 20
-1912.559107666093
 30
0.0
 40
2168.925635790209
100
AcDbArc
 50
83.7524295995867
 51
89.9735388540364
  0
ARC
  5
23E
330
1CE
100
AcDbEntity
  8
LINEA-SPESSA
100
AcDbCircle
 10
39.33941853017313
 20
-3121.425921682945
 30
0.0
 40
3391.101499729154
100
AcDbArc
 50
76.40737787406592
 51
82.87445300490528
  0
ARC
  5
23F
330
1CE
100
AcDbEntity
  8
LINEA-SPESSA
100
AcDbCircle
 10
900.2975832668017
 20
181.5463409453586
 30
0.0
 40
61.43328344351985
100
AcDbArc
 50
151.0791012040994
 51
229.2253932877984
  0
LINE
  5
240
330
1CE
100
AcDbEntity
  8
LINEA-SPESSA
100
AcDbLine
 10
867.0104585148074
 20
132.4840320501025
 30
0.0
 11
940.6189880586461
 21
132.4840320501025
 31
0.0
  0
ARC
  5
241
330
1CE
100
AcDbEntity
  8
LINEA-SPESSA
100
AcDbCircle
 10
867.0104585148074
 20
142.9482649073179
 30
0.0
 40
10.46423285721732
100
AcDbArc
 50
229.2253932877984
 51
270.0
  0
LINE
  5
242
330
1CE
100
AcDbEntity
  8
LINEA-SPESSA
100
AcDbLine
 10
76.99564223685593
 20
0.0000000031868694
 30
0.0
 11
76.99564223685593
 21
118.2582563078758
 31
0.0
  0
LINE
  5
243
330
1CE
100
AcDbEntity
  8
LINEA-SPESSA
100
AcDbLine
 10
66.53140937963326
 20
128.7224891650912
 30
0.0
 11
48.93601617391687
 21
128.7224891650912
 31
0.0
  0
ARC
  5
244
330
1CE
100
AcDbEntity
  8
LINEA-SPESSA
100
AcDbCircle
 10
863.6883031678443
 20
2.657825469068484
 30
0.0
 40
833.3765907944327
100
AcDbArc
 50
171.9245388239359
 51
180.1827294428522
  0
ARC
  5
245
330
1CE
100
AcDbEntity
  8
LINEA-SPESSA
100
AcDbCircle
 10
48.93601617391687
 20
118.2582563078758
 30
0.0
 40
10.46423285721732
100
AcDbArc
 50
90.0
 51
171.9245388243487
  0
ARC
  5
246
330
1CE
100
AcDbEntity
  8
LINEA-SPESSA
100
AcDbCircle
 10
66.53140937963326
 20
118.2582563078758
 30
0.0
 40
10.46423285721732
100
AcDbArc
 50
0.0
 51
90.0
  0
LINE
  5
247
330
1CE
100
AcDbEntity
  8
LINEA-SPESSA
100
AcDbLine
 10
56.15628242291859
 20
0.0000000031868694
 30
0.0
 11
56.15628242291859
 21
112.0695743502656
 31
0.0
  0
LINE
  5
248
330
1CE
100
AcDbEntity
  8
LINEA-SPESSA
100
AcDbLine
 10
488.7117946730577
 20
0.0000000031868694
 30
0.0
 11
488.7117946730577
 21
25.46924868439964
 31
0.0
  0
LINE
  5
249
330
1CE
100
AcDbEntity
  8
LINEA-SPESSA
100
AcDbLine
 10
489.2651562596729
 20
28.82704557311808
 30
0.0
 11
830.0531993972835
 21
28.82704557319812
 31
0.0
  0
ARC
  5
24A
330
1CE
100
AcDbEntity
  8
LINEA-SPESSA
100
AcDbCircle
 10
582.9343187278282
 20
-148.8866003091679
 30
0.0
 40
201.1467722138598
100
AcDbArc
 50
88.95702487215094
 51
117.712289094852
  0
LINE
  5
24B
330
1CE
100
AcDbEntity
  8
LINEA-SPESSA
100
AcDbLine
 10
586.5956616100593
 20
52.22684663151449
 30
0.0
 11
940.6189880584861
 21
52.22684663106338
 31
0.0
  0
ARC
  5
24C
330
1CE
100
AcDbEntity
  8
LINEA-SPESSA
100
AcDbCircle
 10
574.8573436681908
 20
-30.68556538657139
 30
0.0
 40
104.7034215053148
100
AcDbArc
 50
91.59375481195821
 51
143.4249377411641
  0
ARC
  5
24D
330
1CE
100
AcDbEntity
  8
LINEA-SPESSA
100
AcDbCircle
 10
883.2147617930459
 20
-3287.675980645872
 30
0.0
 40
3376.033446263906
100
AcDbArc
 50
91.89329039163004
 51
95.29017083169794
  0
LINE
  5
24E
330
1CE
100
AcDbEntity
  8
LINEA-SPESSA
100
AcDbLine
 10
771.676903639629
 20
86.51446099952591
 30
0.0
 11
940.6189880586461
 21
86.51446099937311
 31
0.0
  0
ARC
  5
24F
330
1CE
100
AcDbEntity
  8
LINEA-SPESSA
100
AcDbCircle
 10
855.5602600197161
 20
27.60482766007771
 30
0.0
 40
25.53632624759742
100
AcDbArc
 50
105.3783200983826
 51
177.2566652212703
  0
LINE
  5
250
330
1CE
100
AcDbEntity
  8
LINEA-SPESSA
100
AcDbLine
 10
830.0531993972835
 20
28.82704557319812
 30
0.0
 11
830.0531993972835
 21
0.0000000031868694
 31
0.0
  0
ARC
  5
251
330
1CE
100
AcDbEntity
  8
LINEA-SPESSA
100
AcDbCircle
 10
499.1760275302803
 20
25.46924868439964
 30
0.0
 40
10.46423285721732
100
AcDbArc
 50
143.4249377411641
 51
180.0
  0
LINE
  5
252
330
1CE
100
AcDbEntity
  8
LINEA-SPESSA
100
AcDbLine
 10
25.12236517031851
 20
-255.5670266254019
 30
0.0
 11
224.9539110858895
 21
-256.3662968118733
 31
0.0
  0
ARC
  5
253
330
1CE
100
AcDbEntity
  8
LINEA-SPESSA
100
AcDbCircle
 10
1316.554094092265
 20
0.3996350964225712
 30
0.0
 40
1316.554154746143
100
AcDbArc
 50
180.0173919201419
 51
191.2109413421901
  0
ARC
  5
254
330
1CE
100
AcDbEntity
  8
LINEA-SPESSA
100
AcDbCircle
 10
1194.682521019378
 20
-10.31271907415066
 30
0.0
 40
1098.801868197643
100
AcDbArc
 50
179.4622470432285
 51
192.9399061303311
  0
ARC
  5
255
330
1CE
100
AcDbEntity
  8
LINEA-SPESSA
100
AcDbCircle
 10
199.2623114276502
 20
-99.12939966467821
 30
0.0
 40
234.0885559176401
100
AcDbArc
 50
221.9347577210192
 51
247.2910353926562
  0
ARC
  5
256
330
1CE
100
AcDbEntity
  8
LINEA-SPESSA
100
AcDbCircle
 10
220.1202143890696
 20
-207.9810431899168
 30
0.0
 40
107.804255947992
100
AcDbArc
 50
206.668327153736
 51
263.261239606573
  0
ARC
  5
257
330
1CE
100
AcDbEntity
  8
LINEA-SPESSA
100
AcDbCircle
 10
157.4812148261553
 20
1959.531740087681
 30
0.0
 40
2275.121518084585
100
AcDbArc
 50
268.7762634375209
 51
275.7757137353773
  0
ARC
  5
258
330
1CE
100
AcDbEntity
  8
LINEA-SPESSA
100
AcDbCircle
 10
109.0731958928663
 20
2258.428865339323
 30
0.0
 40
2577.436233451804
100
AcDbArc
 50
276.1776951822148
 51
288.8217583001435
  0
ARC
  5
259
330
1CE
100
AcDbEntity
  8
LINEA-SPESSA
100
AcDbCircle
 10
223.9522272692702
 20
1912.559107672459
 30
0.0
 40
2168.925635790209
100
AcDbArc
 50
270.0264611459636
 51
276.2475704004133
  0
ARC
  5
25A
330
1CE
100
AcDbEntity
  8
LINEA-SPESSA
100
AcDbCircle
 10
39.33941853017313
 20
3121.425921689318
 30
0.0
 40
3391.101499729154
100
AcDbArc
 50
277.1255469950947
 51
283.5926221259341
  0
ARC
  5
25B
330
1CE
100
AcDbEntity
  8
LINEA-SPESSA
100
AcDbCircle
 10
900.2975832668017
 20
-181.5463409389849
 30
0.0
 40
61.43328344351985
100
AcDbArc
 50
130.7746067122014
 51
208.9208987959005
  0
LINE
  5
25C
330
1CE
100
AcDbEntity
  8
LINEA-SPESSA
100
AcDbLine
 10
867.0104585148074
 20
-132.484032043736
 30
0.0
 11
940.6189880586461
 21
-132.484032043736
 31
0.0
  0
ARC
  5
25D
330
1CE
100
AcDbEntity
  8
LINEA-SPESSA
100
AcDbCircle
 10
867.0104585148074
 20
-142.9482649009514
 30
0.0
 40
10.46423285721732
100
AcDbArc
 50
90.0
 51
130.7746067122014
  0
LINE
  5
25E
330
1CE
100
AcDbEntity
  8
LINEA-SPESSA
100
AcDbLine
 10
76.99564223685593
 20
0.0000000031868694
 30
0.0
 11
76.99564223685593
 21
-118.2582563015021
 31
0.0
  0
LINE
  5
25F
330
1CE
100
AcDbEntity
  8
LINEA-SPESSA
100
AcDbLine
 10
66.53140937963326
 20
-128.7224891587175
 30
0.0
 11
48.93601617391687
 21
-128.7224891587175
 31
0.0
  0
ARC
  5
260
330
1CE
100
AcDbEntity
  8
LINEA-SPESSA
100
AcDbCircle
 10
863.6883031678443
 20
-2.657825462694745
 30
0.0
 40
833.3765907944327
100
AcDbArc
 50
179.8172705571477
 51
188.075461176064
  0
ARC
  5
261
330
1CE
100
AcDbEntity
  8
LINEA-SPESSA
100
AcDbCircle
 10
48.93601617391687
 20
-118.2582563015021
 30
0.0
 40
10.46423285721732
100
AcDbArc
 50
188.0754611756512
 51
270.0
  0
ARC
  5
262
330
1CE
100
AcDbEntity
  8
LINEA-SPESSA
100
AcDbCircle
 10
66.53140937963326
 20
-118.2582563015021
 30
0.0
 40
10.46423285721732
100
AcDbArc
 50
270.0
 51
0.0
  0
LINE
  5
263
330
1CE
100
AcDbEntity
  8
LINEA-SPESSA
100
AcDbLine
 10
56.15628242291859
 20
0.0000000031868694
 30
0.0
 11
56.15628242291859
 21
-112.0695743438991
 31
0.0
  0
LINE
  5
264
330
1CE
100
AcDbEntity
  8
LINEA-SPESSA
100
AcDbLine
 10
488.7117946730577
 20
0.0000000031868694
 30
0.0
 11
488.7117946730577
 21
-25.4692486780259
 31
0.0
  0
LINE
  5
265
330
1CE
100
AcDbEntity
  8
LINEA-SPESSA
100
AcDbLine
 10
489.2651562596729
 20
-28.82704556675162
 30
0.0
 11
830.0531993972835
 21
-28.82704556682438
 31
0.0
  0
ARC
  5
266
330
1CE
100
AcDbEntity
  8
LINEA-SPESSA
100
AcDbCircle
 10
582.9343187278282
 20
148.8866003155417
 30
0.0
 40
201.1467722138598
100
AcDbArc
 50
242.2877109051479
 51
271.042975127849
  0
LINE
  5
267
330
1CE
100
AcDbEntity
  8
LINEA-SPESSA
100
AcDbLine
 10
586.5956616100593
 20
-52.22684662514803
 30
0.0
 11
940.6189880584861
 21
-52.22684662468964
 31
0.0
  0
ARC
  5
268
330
1CE
100
AcDbEntity
  8
LINEA-SPESSA
100
AcDbCircle
 10
574.8573436681908
 20
30.68556539293786
 30
0.0
 40
104.7034215053148
100
AcDbArc
 50
216.5750622588358
 51
268.4062451880417
  0
ARC
  5
269
330
1CE
100
AcDbEntity
  8
LINEA-SPESSA
100
AcDbCircle
 10
883.2147617930459
 20
3287.675980652238
 30
0.0
 40
3376.033446263906
100
AcDbArc
 50
264.709829168302
 51
268.1067096083699
  0
LINE
  5
26A
330
1CE
100
AcDbEntity
  8
LINEA-SPESSA
100
AcDbLine
 10
771.676903639629
 20
-86.51446099315217
 30
0.0
 11
940.6189880586461
 21
-86.51446099299937
 31
0.0
  0
ARC
  5
26B
330
1CE
100
AcDbEntity
  8
LINEA-SPESSA
100
AcDbCircle
 10
855.5602600197161
 20
-27.60482765371125
 30
0.0
 40
25.53632624759742
100
AcDbArc
 50
182.7433347787296
 51
254.6216799016173
  0
LINE
  5
26C
330
1CE
100
AcDbEntity
  8
LINEA-SPESSA
100
AcDbLine
 10
830.0531993972835
 20
-28.82704556682438
 30
0.0
 11
830.0531993972835
 21
0.0000000031868694
 31
0.0
  0
ARC
  5
26D
330
1CE
100
AcDbEntity
  8
LINEA-SPESSA
100
AcDbCircle
 10
499.1760275302803
 20
-25.4692486780259
 30
0.0
 40
10.46423285721732
100
AcDbArc
 50
180.0
 51
216.5750622588358
  0
LINE
  5
26E
330
1CE
100
AcDbEntity
  8
LINEA-SPESSA
100
AcDbLine
 10
848.7882485010342
 20
52.22684663121618
 30
0.0
 11
848.7882485011796
 21
-52.22684662476968
 31
0.0
  0
LINE
  5
26F
330
1CE
100
AcDbEntity
  8
LINEA-SPESSA
100
AcDbLine
 10
848.7882485010342
 20
0.0000000031868694
 30
0.0
 11
940.6189880584861
 21
0.0000000030340743
 31
0.0
  0
LINE
  5
270
330
1CE
100
AcDbEntity
  8
LINEA-SPESSA
100
AcDbLine
 10
726.0201822288508
 20
-244.0806658236179
 30
0.0
 11
726.0201822288508
 21
-317.3082132925337
 31
0.0
  0
LINE
  5
271
330
1CE
100
AcDbEntity
  8
LINEA-SPESSA
100
AcDbLine
 10
726.0201822288508
 20
-317.3082132925337
 30
0.0
 11
108.8923355369042
 21
-317.3082132925337
 31
0.0
  0
LINE
  5
272
330
1CE
100
AcDbEntity
  8
LINEA-SPESSA
100
AcDbLine
 10
108.8923355369042
 20
-315.0708719878675
 30
0.0
 11
108.8923355369042
 21
-317.3082132925337
 31
0.0
  0
LINE
  5
273
330
1CE
100
AcDbEntity
  8
LINEA-SPESSA
100
AcDbLine
 10
202.4618559459631
 20
-350.4843345467524
 30
0.0
 11
632.4506618196465
 21
-350.4843345467524
 31
0.0
  0
LINE
  5
274
330
1CE
100
AcDbEntity
  8
LINEA-SPESSA
100
AcDbLine
 10
722.3431069830257
 20
-324.9109721844433
 30
0.0
 11
632.4506618196465
 21
-350.4843345467524
 31
0.0
  0
LINE
  5
275
330
1CE
100
AcDbEntity
  8
LINEA-SPESSA
100
AcDbLine
 10
722.3431069831859
 20
-324.9109721843633
 30
0.0
 11
722.3431069830257
 21
-317.3082132925337
 31
0.0
  0
LINE
  5
276
330
1CE
100
AcDbEntity
  8
LINEA-SPESSA
100
AcDbLine
 10
112.5694107827293
 20
-324.9109721844433
 30
0.0
 11
202.4618559459631
 21
-350.4843345467524
 31
0.0
  0
LINE
  5
277
330
1CE
100
AcDbEntity
  8
LINEA-SPESSA
100
AcDbLine
 10
112.5694107825693
 20
-324.9109721843633
 30
0.0
 11
112.5694107827293
 21
-317.3082132925337
 31
0.0
  0
LINE
  5
278
330
1CE
100
AcDbEntity
  8
LINEA-SPESSA
100
AcDbLine
 10
781.1063210035791
 20
229.8534772207058
 30
0.0
 11
781.1063210037391
 21
299.0951278097199
 31
0.0
  0
LINE
  5
279
330
1CE
100
AcDbEntity
  8
LINEA-SPESSA
100
AcDbLine
 10
783.1991675751488
 20
301.1879743811368
 30
0.0
 11
864.9625868675066
 21
301.1879743811368
 31
0.0
  0
LINE
  5
27A
330
1CE
100
AcDbEntity
  8
LINEA-SPESSA
100
AcDbLine
 10
867.0554334389162
 20
299.0951278097199
 30
0.0
 11
867.0554334390617
 21
205.0322090651534
 31
0.0
  0
LINE
  5
27B
330
1CE
100
AcDbEntity
  8
LINEA-SPESSA
100
AcDbLine
 10
867.0554334389162
 20
231.8467997448678
 30
0.0
 11
781.1063210035791
 21
231.8467997448678
 31
0.0
  0
ARC
  5
27C
330
1CE
100
AcDbEntity
  8
LINEA-SPESSA
100
AcDbCircle
 10
783.1991675751488
 20
299.0951278097199
 30
0.0
 40
2.092846571443464
100
AcDbArc
 50
90.0
 51
180.0
  0
ARC
  5
27D
330
1CE
100
AcDbEntity
  8
LINEA-SPESSA
100
AcDbCircle
 10
864.9625868675066
 20
299.0951278097199
 30
0.0
 40
2.092846571443464
100
AcDbArc
 50
0.0
 51
90.0
  0
LINE
  5
27E
330
1CE
100
AcDbEntity
  8
LINEA-SPESSA
100
AcDbLine
 10
583.1445890874747
 20
275.0339529583725
 30
0.0
 11
583.1445890874747
 21
315.9426640271849
 31
0.0
  0
LINE
  5
27F
330
1CE
100
AcDbEntity
  8
LINEA-SPESSA
100
AcDbLine
 10
583.1445890874747
 20
315.9426640271849
 30
0.0
 11
319.8929102537367
 21
315.9426640271849
 31
0.0
  0
LINE
  5
280
330
1CE
100
AcDbEntity
  8
LINEA-SPESSA
100
AcDbLine
 10
319.8929102537367
 20
315.9426640271849
 30
0.0
 11
319.8929102537367
 21
309.7854178408379
 31
0.0
  0
LINE
  5
281
330
1CE
100
AcDbEntity
  8
LINEA-SPESSA
100
AcDbLine
 10
575.6588572368346
 20
315.9426640271849
 30
0.0
 11
575.6588572368346
 21
340.6018757077254
 31
0.0
  0
LINE
  5
282
330
1CE
100
AcDbEntity
  8
LINEA-SPESSA
100
AcDbLine
 10
575.6588572368346
 20
340.6018757077254
 30
0.0
 11
552.6210091942194
 21
369.5156654532475
 31
0.0
  0
LINE
  5
283
330
1CE
100
AcDbEntity
  8
LINEA-SPESSA
100
AcDbLine
 10
552.6210091942194
 20
369.5156654532475
 30
0.0
 11
350.4164901471522
 21
369.5156654532475
 31
0.0
  0
LINE
  5
284
330
1CE
100
AcDbEntity
  8
LINEA-SPESSA
100
AcDbLine
 10
327.3786421045224
 20
315.9426640271849
 30
0.0
 11
327.3786421045224
 21
340.6018757077254
 31
0.0
  0
LINE
  5
285
330
1CE
100
AcDbEntity
  8
LINEA-SPESSA
100
AcDbLine
 10
327.3786421045224
 20
340.6018757077254
 30
0.0
 11
350.4164901471522
 21
369.5156654532475
 31
0.0
  0
LINE
  5
286
330
1CE
100
AcDbEntity
  8
LINEA-SPESSA
100
AcDbLine
 10
575.6588572368346
 20
340.6018757077254
 30
0.0
 11
327.3786421045224
 21
340.6018757077254
 31
0.0
  0
LINE
  5
287
330
1CE
100
AcDbEntity
  8
LINEA-SPESSA
100
AcDbLine
 10
451.5187496706785
 20
315.9426640271849
 30
0.0
 11
451.5187496706785
 21
296.1569289217586
 31
0.0
  0
LINE
  5
288
330
1CE
100
AcDbEntity
  8
LINEA-SPESSA
100
AcDbLine
 10
470.4689895049959
 20
315.9426640271849
 30
0.0
 11
470.4689895049959
 21
293.5450016707036
 31
0.0
  0
LINE
  5
289
330
1CE
100
AcDbEntity
  8
LINEA-SPESSA
100
AcDbLine
 10
491.0669871194841
 20
315.9426640271849
 30
0.0
 11
491.0669871194841
 21
290.5431394122497
 31
0.0
  0
LINE
  5
28A
330
1CE
100
AcDbEntity
  8
LINEA-SPESSA
100
AcDbLine
 10
514.9610129755601
 20
315.9426640271849
 30
0.0
 11
514.9610129755601
 21
286.847665312438
 31
0.0
  0
LINE
  5
28B
330
1CE
100
AcDbEntity
  8
LINEA-SPESSA
100
AcDbLine
 10
529.7918583596183
 20
315.9426640271849
 30
0.0
 11
529.7918583597638
 21
284.4382850629408
 31
0.0
  0
LINE
  5
28C
330
1CE
100
AcDbEntity
  8
LINEA-SPESSA
100
AcDbLine
 10
551.2142475454457
 20
315.9426640271849
 30
0.0
 11
551.2142475454457
 21
280.8011021874699
 31
0.0
  0
LINE
  5
28D
330
1CE
100
AcDbEntity
  8
LINEA-SPESSA
100
AcDbLine
 10
567.6928507095144
 20
315.9426640271849
 30
0.0
 11
567.69285070982
 21
277.8766268595354
 31
0.0
  0
LINE
  5
28E
330
1CE
100
AcDbEntity
  8
LINEA-SPESSA
100
AcDbLine
 10
432.5685098363756
 20
315.9426640271849
 30
0.0
 11
432.5685098363756
 21
298.6257526536864
 31
0.0
  0
LINE
  5
28F
330
1CE
100
AcDbEntity
  8
LINEA-SPESSA
100
AcDbLine
 10
411.9705122218874
 20
315.9426640271849
 30
0.0
 11
411.9705122217274
 21
301.1474185997794
 31
0.0
  0
LINE
  5
290
330
1CE
100
AcDbEntity
  8
LINEA-SPESSA
100
AcDbLine
 10
388.0764863656513
 20
315.9426640271849
 30
0.0
 11
388.0764863656513
 21
303.8620434858458
 31
0.0
  0
LINE
  5
291
330
1CE
100
AcDbEntity
  8
LINEA-SPESSA
100
AcDbLine
 10
373.2456409817532
 20
315.9426640271849
 30
0.0
 11
373.2456409815931
 21
305.3355042527328
 31
0.0
  0
LINE
  5
292
330
1CE
100
AcDbEntity
  8
LINEA-SPESSA
100
AcDbLine
 10
351.8232517957658
 20
315.9426640271849
 30
0.0
 11
351.8232517957658
 21
307.2741833973559
 31
0.0
  0
LINE
  5
293
330
1CE
100
AcDbEntity
  8
LINEA-SPESSA
100
AcDbLine
 10
335.3446486315515
 20
315.9426640271849
 30
0.0
 11
335.3446486315515
 21
308.6266584805343
 31
0.0
  0
LINE
  5
294
330
1CE
100
AcDbEntity
  8
LINEA-SPESSA
100
AcDbLine
 10
576.064236995473
 20
315.9426640271849
 30
0.0
 11
576.0642369956185
 21
276.3486209644324
 31
0.0
  0
LINE
  5
295
330
1CE
100
AcDbEntity
  8
LINEA-SPESSA
100
AcDbLine
 10
326.9732623458985
 20
315.9426640271849
 30
0.0
 11
326.9732623458985
 21
309.2675828821011
 31
0.0
  0
ARC
  5
296
330
1CE
100
AcDbEntity
  8
LINEA-SPESSA
100
AcDbCircle
 10
781.1528051079949
 20
-120.0402340499567
 30
0.0
 40
1316.554154746143
100
AcDbArc
 50
78.78905865731984
 51
89.98260808027495
  0
ARC
  5
297
330
1CE
100
AcDbEntity
  8
LINEA-SPESSA
100
AcDbCircle
 10
872.4418493404082
 20
995.6882222408093
 30
0.0
 40
241.3591522363101
100
AcDbArc
 50
21.74693980144728
 51
46.71684462193045
  0
ARC
  5
298
330
1CE
100
AcDbEntity
  8
LINEA-SPESSA
100
AcDbCircle
 10
-1177.979299883183
 20
1036.524798397855
 30
0.0
 40
2275.121518084585
100
AcDbArc
 50
355.9064049111183
 51
1.223736562470115
  0
ARC
  5
299
330
1CE
100
AcDbEntity
  8
LINEA-SPESSA
100
AcDbCircle
 10
-1476.876425134905
 20
1084.932817331151
 30
0.0
 40
2577.436233451804
100
AcDbArc
 50
341.1782416998564
 51
342.8973939505723
  0
ARC
  5
29A
330
1CE
100
AcDbEntity
  8
LINEA-SPESSA
100
AcDbCircle
 10
781.9520752946264
 20
-120.0402340499567
 30
0.0
 40
1316.554154746143
100
AcDbArc
 50
90.01739191972504
 51
101.2109413426801
  0
ARC
  5
29B
330
1CE
100
AcDbEntity
  8
LINEA-SPESSA
100
AcDbCircle
 10
690.6630310622131
 20
995.6882222408093
 30
0.0
 40
241.3591522363101
100
AcDbArc
 50
133.2831553780695
 51
158.2530601985526
  0
LINE
  5
29C
330
1CE
100
AcDbEntity
  8
LINEA-SPESSA
100
AcDbLine
 10
537.4717743745859
 20
467.9858309953925
 30
0.0
 11
464.2442269056773
 21
467.9858309953925
 31
0.0
  0
LINE
  5
29D
330
1CE
100
AcDbEntity
  8
LINEA-SPESSA
100
AcDbLine
 10
464.2442269056773
 20
1081.436602441368
 30
0.0
 11
464.2442269056773
 21
1085.113677687339
 31
0.0
  0
LINE
  5
29E
330
1CE
100
AcDbEntity
  8
LINEA-SPESSA
100
AcDbLine
 10
466.4815682102634
 20
1085.113677687339
 30
0.0
 11
464.2442269056773
 21
1085.113677687339
 31
0.0
  0
LINE
  5
29F
330
1CE
100
AcDbEntity
  8
LINEA-SPESSA
100
AcDbLine
 10
431.068105651444
 20
991.5441572782802
 30
0.0
 11
431.068105651444
 21
561.5553514046041
 31
0.0
  0
LINE
  5
2A0
330
1CE
100
AcDbEntity
  8
LINEA-SPESSA
100
AcDbLine
 10
456.6414680137677
 20
471.6629062412176
 30
0.0
 11
431.068105651444
 21
561.5553514046041
 31
0.0
  0
LINE
  5
2A1
330
1CE
100
AcDbEntity
  8
LINEA-SPESSA
100
AcDbLine
 10
456.6414680139132
 20
471.6629062410647
 30
0.0
 11
464.2442269056773
 21
471.6629062412176
 31
0.0
  0
LINE
  5
2A2
330
1CE
100
AcDbEntity
  8
LINEA-SPESSA
100
AcDbLine
 10
456.6414680137677
 20
1081.436602441521
 30
0.0
 11
431.068105651444
 21
991.5441572782802
 31
0.0
  0
LINE
  5
2A3
330
1CE
100
AcDbEntity
  8
LINEA-SPESSA
100
AcDbLine
 10
456.6414680139132
 20
1081.436602441674
 30
0.0
 11
464.2442269056773
 21
1081.436602441521
 31
0.0
  0
LINE
  5
2A4
330
1CE
100
AcDbEntity
  8
LINEA-SPESSA
100
AcDbLine
 10
1011.405917418902
 20
412.8996922206643
 30
0.0
 11
1080.647568007844
 21
412.8996922205114
 31
0.0
  0
LINE
  5
2A5
330
1CE
100
AcDbEntity
  8
LINEA-SPESSA
100
AcDbLine
 10
1082.740414579413
 20
410.8068456491018
 30
0.0
 11
1082.740414579413
 21
329.043426356744
 31
0.0
  0
LINE
  5
2A6
330
1CE
100
AcDbEntity
  8
LINEA-SPESSA
100
AcDbLine
 10
1080.647568007844
 20
326.9505797853344
 30
0.0
 11
986.5846492633572
 21
326.9505797851816
 31
0.0
  0
ARC
  5
2A7
330
1CE
100
AcDbEntity
  8
LINEA-SPESSA
100
AcDbCircle
 10
1080.647568007844
 20
410.806845648869
 30
0.0
 40
2.092846571443464
100
AcDbArc
 50
0.0
 51
90.0
  0
ARC
  5
2A8
330
1CE
100
AcDbEntity
  8
LINEA-SPESSA
100
AcDbCircle
 10
1080.647568007844
 20
329.0434263565184
 30
0.0
 40
2.092846571443464
100
AcDbArc
 50
270.0
 51
0.0
  0
LINE
  5
2A9
330
1CE
100
AcDbEntity
  8
LINEA-SPESSA
100
AcDbLine
 10
1056.586393156496
 20
610.8614241367758
 30
0.0
 11
1105.264550807492
 21
610.8614241367758
 31
0.0
  0
LINE
  5
2AA
330
1CE
100
AcDbEntity
  8
LINEA-SPESSA
100
AcDbLine
 10
1105.264550807492
 20
874.1131029705066
 30
0.0
 11
1091.337858038968
 21
874.1131029705066
 31
0.0
  0
LINE
  5
2AB
330
1CE
100
AcDbEntity
  8
LINEA-SPESSA
100
AcDbLine
 10
1105.264550807492
 20
618.3471559874087
 30
0.0
 11
1129.313752724017
 21
618.3471559874087
 31
0.0
  0
LINE
  5
2AC
330
1CE
100
AcDbEntity
  8
LINEA-SPESSA
100
AcDbLine
 10
1129.313752724017
 20
618.3471559874087
 30
0.0
 11
1158.22754246954
 21
641.3850040300239
 31
0.0
  0
LINE
  5
2AD
330
1CE
100
AcDbEntity
  8
LINEA-SPESSA
100
AcDbLine
 10
1158.22754246954
 20
641.3850040300239
 30
0.0
 11
1158.22754246954
 21
843.5895230770984
 31
0.0
  0
LINE
  5
2AE
330
1CE
100
AcDbEntity
  8
LINEA-SPESSA
100
AcDbLine
 10
1105.264550807492
 20
866.6273711197209
 30
0.0
 11
1129.313752724017
 21
866.6273711197209
 31
0.0
  0
LINE
  5
2AF
330
1CE
100
AcDbEntity
  8
LINEA-SPESSA
100
AcDbLine
 10
1129.313752724017
 20
866.6273711197209
 30
0.0
 11
1158.22754246954
 21
843.5895230770984
 31
0.0
  0
LINE
  5
2B0
330
1CE
100
AcDbEntity
  8
LINEA-SPESSA
100
AcDbLine
 10
1105.264550807492
 20
874.1131029705066
 30
0.0
 11
1105.264550807492
 21
866.6273711197209
 31
0.0
  0
LINE
  5
2B1
330
1CE
100
AcDbEntity
  8
LINEA-SPESSA
100
AcDbLine
 10
1105.264550807492
 20
610.8614241367758
 30
0.0
 11
1105.264550807492
 21
618.3471559875616
 31
0.0
  0
ARC
  5
2B2
330
1CE
100
AcDbEntity
  8
LINEA-SPESSA
100
AcDbCircle
 10
-1476.876425134905
 20
1084.932817331151
 30
0.0
 40
2577.436233451804
100
AcDbArc
 50
344.8861993153288
 51
349.4011643226544
  0
LINE
  5
2B3
330
1CE
100
AcDbEntity
  8
LINEA-SPESSA
100
AcDbLine
 10
464.2442269056773
 20
471.6629062412176
 30
0.0
 11
464.2442269056773
 21
467.9858309953925
 31
0.0
  0
LINE
  5
2B4
330
1CE
100
AcDbEntity
  8
LINEA-SPESSA
100
AcDbLine
 10
961.5963354605629
 20
184.132916444083
 30
0.0
 11
961.5963354605483
 21
210.8858237519962
 31
0.0
  0
CIRCLE
  5
2B5
330
1CE
100
AcDbEntity
  8
LINEA-SPESSA
100
AcDbCircle
 10
961.5963354605483
 20
210.8858237519962
 30
0.0
 40
10.5858358198545
  0
LINE
  5
2B6
330
1CE
100
AcDbEntity
  8
LINEA-SPESSA
100
AcDbLine
 10
1149.114104625114
 20
0.0000000031868694
 30
0.0
 11
975.9599809082866
 21
0.0000000033905962
 31
0.0
  0
LINE
  5
2B7
330
1CE
100
AcDbEntity
  8
LINEA-SPESSA
100
AcDbLine
 10
1274.476391171134
 20
0.0000000031868694
 30
0.0
 11
1303.221963881136
 21
0.0000000031868694
 31
0.0
  0
ENDBLK
  5
2B9
330
1CE
100
AcDbEntity
  8
0
100
AcDbBlockEnd
  0
BLOCK
  5
3A1
330
2BB
100
AcDbEntity
  8
0
100
AcDbBlockBegin
  2
RS300EBLUU1
 70
     0
 10
0.0
 20
0.0
 30
0.0
  3
RS300EBLUU1
  1

  0
LINE
  5
2BC
330
2BB
100
AcDbEntity
  8
LINEA-SPESSA
100
AcDbLine
 10
1325.0
 20
-0.0000000031795935
 30
0.0
 11
1325.0
 21
-207.7164033970984
 31
0.0
  0
LINE
  5
2BD
330
2BB
100
AcDbEntity
  8
LINEA-SPESSA
100
AcDbLine
 10
1325.0
 20
-207.7164033970984
 30
0.0
 11
1303.221963881136
 21
-207.7164033970984
 31
0.0
  0
LINE
  5
2BE
330
2BB
100
AcDbEntity
  8
LINEA-SPESSA
100
AcDbLine
 10
1303.221963881136
 20
-0.0000000031795935
 30
0.0
 11
1303.221963881136
 21
-207.7164033970984
 31
0.0
  0
LINE
  5
2BF
330
2BB
100
AcDbEntity
  8
LINEA-SPESSA
100
AcDbLine
 10
940.6189880586461
 20
-123.0990580865982
 30
0.0
 11
940.6189880584861
 21
-0.0000000031795935
 31
0.0
  0
LINE
  5
2C0
330
2BB
100
AcDbEntity
  8
LINEA-SPESSA
100
AcDbLine
 10
940.6189880586461
 20
-123.0990580865982
 30
0.0
 11
940.6189880586461
 21
-184.132916444003
 31
0.0
  0
LINE
  5
2C1
330
2BB
100
AcDbEntity
  8
LINEA-SPESSA
100
AcDbLine
 10
975.9599809082866
 20
-0.0000000031795935
 30
0.0
 11
975.9599809084321
 21
-122.73949809662
 31
0.0
  0
LINE
  5
2C2
330
2BB
100
AcDbEntity
  8
LINEA-SPESSA
100
AcDbLine
 10
940.6189880586461
 20
-184.132916444003
 30
0.0
 11
961.5963354605629
 21
-184.1329164440758
 31
0.0
  0
LINE
  5
2C3
330
2BB
100
AcDbEntity
  8
LINEA-SPESSA
100
AcDbLine
 10
961.5963354604028
 20
-184.1329164440758
 30
0.0
 11
975.9599809085921
 21
-184.1329164440758
 31
0.0
  0
LINE
  5
2C4
330
2BB
100
AcDbEntity
  8
LINEA-SPESSA
100
AcDbLine
 10
975.9599809085921
 20
-170.2838557984723
 30
0.0
 11
1303.221963881136
 21
-170.2838557984723
 31
0.0
  0
LINE
  5
2C5
330
2BB
100
AcDbEntity
  8
LINEA-SPESSA
100
AcDbLine
 10
961.5963354602572
 20
-0.0000000031795935
 30
0.0
 11
961.5963354605629
 21
-184.1329164440758
 31
0.0
  0
LWPOLYLINE
  5
2C6
330
2BB
100
AcDbEntity
  8
LINEA-SPESSA
100
AcDbPolyline
 90
        2
 70
     0
 43
0.0
 10
1013.548662197572
 20
-132.9556988698095
 10
969.083240116277
 20
-132.9556988698095
  0
LINE
  5
2C7
330
2BB
100
AcDbEntity
  8
LINEA-SPESSA
100
AcDbLine
 10
975.9599809084321
 20
-132.9556988697877
 30
0.0
 11
975.9599809085921
 21
-184.1329164440758
 31
0.0
  0
ARC
  5
2C8
330
2BB
100
AcDbEntity
  8
LINEA-SPESSA
100
AcDbCircle
 10
1013.548662197747
 20
-127.8475984832039
 30
0.0
 40
5.10810038658642
100
AcDbArc
 50
270.0
 51
90.0
  0
ARC
  5
2C9
330
2BB
100
AcDbEntity
  8
LINEA-SPESSA
100
AcDbCircle
 10
969.0832401163788
 20
-127.8475984832039
 30
0.0
 40
5.10810038658642
100
AcDbArc
 50
90.0
 51
270.0
  0
LWPOLYLINE
  5
2CA
330
2BB
100
AcDbEntity
  8
LINEA-SPESSA
100
AcDbPolyline
 90
        2
 70
     0
 43
0.0
 10
969.083240116277
 20
-122.7394980966127
 10
1013.548662197572
 20
-122.7394980966127
  0
LINE
  5
2CB
330
2BB
100
AcDbEntity
  8
LINEA-SPESSA
100
AcDbLine
 10
975.9599809084321
 20
-142.7340697910694
 30
0.0
 11
1303.221963881296
 21
-142.7340697910694
 31
0.0
  0
ARC
  5
2CC
330
2BB
100
AcDbEntity
  8
LINEA-SPESSA
100
AcDbCircle
 10
968.5547901179671
 20
6491.089921427505
 30
0.0
 40
6606.700121656281
100
AcDbArc
 50
270.0642206036487
 51
272.9036018363998
  0
LINE
  5
2CD
330
2BB
100
AcDbEntity
  8
LINEA-SPESSA
100
AcDbLine
 10
1010.856501664005
 20
-115.4747730785311
 30
0.0
 11
1010.856501664005
 21
-0.0000000031795935
 31
0.0
  0
LINE
  5
2CE
330
2BB
100
AcDbEntity
  8
LINEA-SPESSA
100
AcDbLine
 10
1074.559658456099
 20
-142.7340697910694
 30
0.0
 11
1074.559658456099
 21
-170.2838557984723
 31
0.0
  0
LINE
  5
2CF
330
2BB
100
AcDbEntity
  8
LINEA-SPESSA
100
AcDbLine
 10
1095.435671222861
 20
-142.7340697910694
 30
0.0
 11
1095.435671222861
 21
-170.2838557984723
 31
0.0
  0
LINE
  5
2D0
330
2BB
100
AcDbEntity
  8
LINEA-SPESSA
100
AcDbLine
 10
1325.0
 20
-0.0000000031795935
 30
0.0
 11
1325.0
 21
207.7164033907393
 31
0.0
  0
LINE
  5
2D1
330
2BB
100
AcDbEntity
  8
LINEA-SPESSA
100
AcDbLine
 10
1325.0
 20
207.7164033907393
 30
0.0
 11
1303.221963881136
 21
207.7164033907393
 31
0.0
  0
LINE
  5
2D2
330
2BB
100
AcDbEntity
  8
LINEA-SPESSA
100
AcDbLine
 10
1303.221963881136
 20
-0.0000000031795935
 30
0.0
 11
1303.221963881136
 21
207.7164033907393
 31
0.0
  0
LINE
  5
2D3
330
2BB
100
AcDbEntity
  8
LINEA-SPESSA
100
AcDbLine
 10
940.6189880586461
 20
123.0990580802317
 30
0.0
 11
940.6189880584861
 21
-0.0000000031795935
 31
0.0
  0
LINE
  5
2D4
330
2BB
100
AcDbEntity
  8
LINEA-SPESSA
100
AcDbLine
 10
940.6189880586461
 20
123.0990580802317
 30
0.0
 11
940.6189880586461
 21
184.1329164376438
 31
0.0
  0
LINE
  5
2D5
330
2BB
100
AcDbEntity
  8
LINEA-SPESSA
100
AcDbLine
 10
975.9599809082866
 20
-0.0000000031795935
 30
0.0
 11
975.9599809084321
 21
122.7394980902536
 31
0.0
  0
LINE
  5
2D6
330
2BB
100
AcDbEntity
  8
LINEA-SPESSA
100
AcDbLine
 10
940.6189880586461
 20
184.1329164376438
 30
0.0
 11
961.5963354605629
 21
184.1329164377166
 31
0.0
  0
LINE
  5
2D7
330
2BB
100
AcDbEntity
  8
LINEA-SPESSA
100
AcDbLine
 10
961.5963354604028
 20
184.1329164377166
 30
0.0
 11
975.9599809085921
 21
184.1329164377166
 31
0.0
  0
LINE
  5
2D8
330
2BB
100
AcDbEntity
  8
LINEA-SPESSA
100
AcDbLine
 10
975.9599809085921
 20
170.2838557921058
 30
0.0
 11
1303.221963881136
 21
170.2838557921058
 31
0.0
  0
LINE
  5
2D9
330
2BB
100
AcDbEntity
  8
LINEA-SPESSA
100
AcDbLine
 10
961.5963354602572
 20
-0.0000000031795935
 30
0.0
 11
961.5963354605629
 21
184.1329164377166
 31
0.0
  0
LWPOLYLINE
  5
2DA
330
2BB
100
AcDbEntity
  8
LINEA-SPESSA
100
AcDbPolyline
 90
        2
 70
     0
 43
0.0
 10
1013.548662197572
 20
132.9556988633921
 10
969.083240116277
 20
132.9556988633921
  0
LINE
  5
2DB
330
2BB
100
AcDbEntity
  8
LINEA-SPESSA
100
AcDbLine
 10
975.9599809084321
 20
132.9556988634285
 30
0.0
 11
975.9599809085921
 21
184.1329164377166
 31
0.0
  0
ARC
  5
2DC
330
2BB
100
AcDbEntity
  8
LINEA-SPESSA
100
AcDbCircle
 10
1013.548662197747
 20
127.8475984768374
 30
0.0
 40
5.10810038658642
100
AcDbArc
 50
270.0
 51
90.0
  0
ARC
  5
2DD
330
2BB
100
AcDbEntity
  8
LINEA-SPESSA
100
AcDbCircle
 10
969.0832401163788
 20
127.8475984768374
 30
0.0
 40
5.10810038658642
100
AcDbArc
 50
90.0
 51
270.0
  0
LWPOLYLINE
  5
2DE
330
2BB
100
AcDbEntity
  8
LINEA-SPESSA
100
AcDbPolyline
 90
        2
 70
     0
 43
0.0
 10
969.083240116277
 20
122.7394980902536
 10
1013.548662197572
 20
122.7394980902536
  0
LINE
  5
2DF
330
2BB
100
AcDbEntity
  8
LINEA-SPESSA
100
AcDbLine
 10
975.9599809084321
 20
142.7340697847103
 30
0.0
 11
1303.221963881296
 21
142.7340697847103
 31
0.0
  0
ARC
  5
2E0
330
2BB
100
AcDbEntity
  8
LINEA-SPESSA
100
AcDbCircle
 10
968.5547901179671
 20
-6491.089921433864
 30
0.0
 40
6606.700121656281
100
AcDbArc
 50
87.09639816360022
 51
89.93577939635127
  0
LINE
  5
2E1
330
2BB
100
AcDbEntity
  8
LINEA-SPESSA
100
AcDbLine
 10
1010.856501664005
 20
115.4747730721719
 30
0.0
 11
1010.856501664005
 21
-0.0000000031795935
 31
0.0
  0
CIRCLE
  5
2E2
330
2BB
100
AcDbEntity
  8
LINEA-SPESSA
100
AcDbCircle
 10
1257.647626661593
 20
-0.0000000031795935
 30
0.0
 40
16.82876450953629
  0
CIRCLE
  5
2E3
330
2BB
100
AcDbEntity
  8
LINEA-SPESSA
100
AcDbCircle
 10
1159.223667682672
 20
-0.0000000031795935
 30
0.0
 40
10.10956305755436
  0
LINE
  5
2E4
330
2BB
100
AcDbEntity
  8
LINEA-SPESSA
100
AcDbLine
 10
1240.818862152053
 20
-0.0000000031795935
 30
0.0
 11
1169.33323074023
 21
-0.0000000031795935
 31
0.0
  0
LINE
  5
2E5
330
2BB
100
AcDbEntity
  8
LINEA-SPESSA
100
AcDbLine
 10
1262.512767153006
 20
-170.2838557984723
 30
0.0
 11
1262.512767153006
 21
-191.8181798942096
 31
0.0
  0
LINE
  5
2E6
330
2BB
100
AcDbEntity
  8
LINEA-SPESSA
100
AcDbLine
 10
1262.512767153006
 20
-191.8181798942096
 30
0.0
 11
1237.63942645723
 21
-191.8181798942096
 31
0.0
  0
LINE
  5
2E7
330
2BB
100
AcDbEntity
  8
LINEA-SPESSA
100
AcDbLine
 10
1237.63942645723
 20
-191.8181798942096
 30
0.0
 11
1237.63942645723
 21
-170.2838557984723
 31
0.0
  0
LINE
  5
2E8
330
2BB
100
AcDbEntity
  8
LINEA-SPESSA
100
AcDbLine
 10
1220.157045923319
 20
-170.2838557984723
 30
0.0
 11
1220.157045923319
 21
-183.7736972157872
 31
0.0
  0
LINE
  5
2E9
330
2BB
100
AcDbEntity
  8
LINEA-SPESSA
100
AcDbLine
 10
1220.157045923319
 20
-183.7736972157872
 30
0.0
 11
1210.534567743103
 21
-183.7736972157872
 31
0.0
  0
LINE
  5
2EA
330
2BB
100
AcDbEntity
  8
LINEA-SPESSA
100
AcDbLine
 10
1210.534567743103
 20
-183.7736972157872
 30
0.0
 11
1210.534567743103
 21
-170.2838557984723
 31
0.0
  0
LWPOLYLINE
  5
2EB
330
2BB
100
AcDbEntity
  8
LINEA-SPESSA
100
AcDbPolyline
 90
        4
 70
     0
 43
0.0
 10
991.9600729036757
 20
-193.1291060434668
 10
1083.301387737068
 20
-193.1291060434668
 10
1083.301387737068
 20
-186.9979500719127
 10
991.9600729036757
 20
-186.9979500719127
  0
LWPOLYLINE
  5
2EC
330
2BB
100
AcDbEntity
  8
LINEA-SPESSA
100
AcDbPolyline
 90
        4
 70
     1
 43
0.0
 10
1046.47271620811
 20
-193.1291060434668
 10
997.3685395212669
 20
-193.1291060434668
 10
997.3685395212669
 20
-234.4353277574773
 10
1046.47271620811
 20
-234.4353277574773
  0
LWPOLYLINE
  5
2ED
330
2BB
100
AcDbEntity
  8
LINEA-SPESSA
100
AcDbPolyline
 90
        4
 70
     1
 43
0.0
 10
1073.48702056802
 20
-193.1291060434668
 10
1096.165824013325
 20
-193.1291060434668
 10
1096.165824013325
 20
-215.8079094887725
 10
1073.48702056802
 20
-215.8079094887725
  0
LINE
  5
2EE
330
2BB
100
AcDbEntity
  8
LINEA-SPESSA
100
AcDbLine
 10
1089.777102102918
 20
-193.1291060434741
 30
0.0
 11
1089.777102102918
 21
-170.2838557984723
 31
0.0
  0
LINE
  5
2EF
330
2BB
100
AcDbEntity
  8
LINEA-SPESSA
100
AcDbLine
 10
1054.307823917464
 20
-186.9979500718836
 30
0.0
 11
1054.307823917464
 21
-170.2838557984723
 31
0.0
  0
LINE
  5
2F0
330
2BB
100
AcDbEntity
  8
LINEA-SPESSA
100
AcDbLine
 10
997.3685395214124
 20
-224.2847501939759
 30
0.0
 11
977.3085939719312
 21
-224.2847501939759
 31
0.0
  0
LINE
  5
2F1
330
2BB
100
AcDbEntity
  8
LINEA-SPESSA
100
AcDbLine
 10
977.3085939719312
 20
-224.2847501939759
 30
0.0
 11
977.3085939719312
 21
-215.0580243790245
 31
0.0
  0
LINE
  5
2F2
330
2BB
100
AcDbEntity
  8
LINEA-SPESSA
100
AcDbLine
 10
977.3085939719312
 20
-215.0580243790245
 30
0.0
 11
966.3224103360553
 21
-215.0580243790245
 31
0.0
  0
LINE
  5
2F3
330
2BB
100
AcDbEntity
  8
LINEA-SPESSA
100
AcDbLine
 10
966.3224103360553
 20
-215.0580243790245
 30
0.0
 11
966.3224103360699
 21
-210.8858237519962
 31
0.0
  0
LWPOLYLINE
  5
2F4
330
2BB
100
AcDbEntity
  8
LINEA-SPESSA
100
AcDbPolyline
 90
        4
 70
     1
 43
0.0
 10
1166.642656572657
 20
170.2838557920986
 10
1126.949664573214
 20
170.2838557920986
 10
1126.949664573214
 20
181.136464470961
 10
1166.642656572657
 20
181.136464470961
  0
LWPOLYLINE
  5
2F5
330
2BB
100
AcDbEntity
  8
LINEA-SPESSA
100
AcDbPolyline
 90
        4
 70
     1
 43
0.0
 10
1259.207533218228
 20
170.2838557920404
 10
1239.374862136348
 20
170.2838557920404
 10
1239.374862136348
 20
190.1165268739205
 10
1259.207533218228
 20
190.1165268739205
  0
LWPOLYLINE
  5
2F6
330
2BB
100
AcDbEntity
  8
LINEA-SPESSA
100
AcDbPolyline
 90
        4
 70
     1
 43
0.0
 10
1052.267116859817
 20
170.2838557920986
 10
1004.580547030578
 20
170.2838557920986
 10
1004.580547030578
 20
182.9006009119548
 10
1052.267116859817
 20
182.9006009119548
  0
LINE
  5
2F7
330
2BB
100
AcDbEntity
  8
LINEA-SPESSA
100
AcDbLine
 10
1113.455987743422
 20
170.2838557921058
 30
0.0
 11
1113.455987743422
 21
225.7106226312243
 31
0.0
  0
LINE
  5
2F8
330
2BB
100
AcDbEntity
  8
LINEA-SPESSA
100
AcDbLine
 10
1123.920220600644
 20
236.1748554884397
 30
0.0
 11
1194.535738988794
 21
236.174855488367
 31
0.0
  0
LINE
  5
2F9
330
2BB
100
AcDbEntity
  8
LINEA-SPESSA
100
AcDbLine
 10
1204.999971846016
 20
225.7106226311443
 30
0.0
 11
1204.999971846016
 21
170.2838557921058
 31
0.0
  0
ARC
  5
2FA
330
2BB
100
AcDbEntity
  8
LINEA-SPESSA
100
AcDbCircle
 10
1123.920220600644
 20
225.7106226312243
 30
0.0
 40
10.46423285721732
100
AcDbArc
 50
90.0
 51
180.0
  0
ARC
  5
2FB
330
2BB
100
AcDbEntity
  8
LINEA-SPESSA
100
AcDbCircle
 10
1194.535738988794
 20
225.7106226311443
 30
0.0
 40
10.46423285721732
100
AcDbArc
 50
0.0
 51
90.0
  0
LINE
  5
2FC
330
2BB
100
AcDbEntity
  8
LINEA-SPESSA
100
AcDbLine
 10
25.12236517031851
 20
255.5670266254019
 30
0.0
 11
224.9539110858895
 21
256.3662968118805
 31
0.0
  0
ARC
  5
2FD
330
2BB
100
AcDbEntity
  8
LINEA-SPESSA
100
AcDbCircle
 10
1316.554094092265
 20
-0.3996350964225712
 30
0.0
 40
1316.554154746143
100
AcDbArc
 50
168.7890586578098
 51
179.982608079858
  0
ARC
  5
2FE
330
2BB
100
AcDbEntity
  8
LINEA-SPESSA
100
AcDbCircle
 10
1210.077861819285
 20
9.555511211117845
 30
0.0
 40
1114.18978904938
100
AcDbArc
 50
167.2440586560032
 51
180.4913859205639
  0
ARC
  5
2FF
330
2BB
100
AcDbEntity
  8
LINEA-SPESSA
100
AcDbCircle
 10
199.2623114276793
 20
99.12939966466366
 30
0.0
 40
234.0885559176658
100
AcDbArc
 50
112.7089646073437
 51
138.0652422789806
  0
ARC
  5
300
330
2BB
100
AcDbEntity
  8
LINEA-SPESSA
100
AcDbCircle
 10
220.1202143890696
 20
207.9810431899168
 30
0.0
 40
107.804255947992
100
AcDbArc
 50
96.73876039342694
 51
153.3316728462638
  0
ARC
  5
301
330
2BB
100
AcDbEntity
  8
LINEA-SPESSA
100
AcDbCircle
 10
157.4812148261553
 20
-1959.531740087681
 30
0.0
 40
2275.121518084585
100
AcDbArc
 50
84.22428626462268
 51
91.223736562479
  0
ARC
  5
302
330
2BB
100
AcDbEntity
  8
LINEA-SPESSA
100
AcDbCircle
 10
109.0731958928663
 20
-2258.428865339323
 30
0.0
 40
2577.436233451804
100
AcDbArc
 50
71.1782416998565
 51
83.8223048177851
  0
ARC
  5
303
330
2BB
100
AcDbEntity
  8
LINEA-SPESSA
100
AcDbCircle
 10
223.9522272692702
 20
-1912.559107672459
 30
0.0
 40
2168.925635790209
100
AcDbArc
 50
83.7524295995867
 51
89.9735388540364
  0
ARC
  5
304
330
2BB
100
AcDbEntity
  8
LINEA-SPESSA
100
AcDbCircle
 10
39.33941853017313
 20
-3121.425921689311
 30
0.0
 40
3391.101499729154
100
AcDbArc
 50
76.40737787406592
 51
82.87445300490528
  0
ARC
  5
305
330
2BB
100
AcDbEntity
  8
LINEA-SPESSA
100
AcDbCircle
 10
900.2975832668017
 20
181.5463409389922
 30
0.0
 40
61.43328344351985
100
AcDbArc
 50
151.0791012040994
 51
229.2253932877984
  0
LINE
  5
306
330
2BB
100
AcDbEntity
  8
LINEA-SPESSA
100
AcDbLine
 10
867.0104585148074
 20
132.484032043736
 30
0.0
 11
940.6189880586461
 21
132.484032043736
 31
0.0
  0
ARC
  5
307
330
2BB
100
AcDbEntity
  8
LINEA-SPESSA
100
AcDbCircle
 10
867.0104585148074
 20
142.9482649009514
 30
0.0
 40
10.46423285721732
100
AcDbArc
 50
229.2253932877984
 51
270.0
  0
LINE
  5
308
330
2BB
100
AcDbEntity
  8
LINEA-SPESSA
100
AcDbLine
 10
76.99564223685593
 20
-0.0000000031795935
 30
0.0
 11
76.99564223685593
 21
118.2582563015093
 31
0.0
  0
LINE
  5
309
330
2BB
100
AcDbEntity
  8
LINEA-SPESSA
100
AcDbLine
 10
66.53140937963326
 20
128.7224891587247
 30
0.0
 11
48.93601617391687
 21
128.7224891587247
 31
0.0
  0
ARC
  5
30A
330
2BB
100
AcDbEntity
  8
LINEA-SPESSA
100
AcDbCircle
 10
863.6883031678443
 20
2.657825462702021
 30
0.0
 40
833.3765907944327
100
AcDbArc
 50
171.9245388239359
 51
180.1827294428522
  0
ARC
  5
30B
330
2BB
100
AcDbEntity
  8
LINEA-SPESSA
100
AcDbCircle
 10
48.93601617391687
 20
118.2582563015093
 30
0.0
 40
10.46423285721732
100
AcDbArc
 50
90.0
 51
171.9245388243487
  0
ARC
  5
30C
330
2BB
100
AcDbEntity
  8
LINEA-SPESSA
100
AcDbCircle
 10
66.53140937963326
 20
118.2582563015093
 30
0.0
 40
10.46423285721732
100
AcDbArc
 50
0.0
 51
90.0
  0
LINE
  5
30D
330
2BB
100
AcDbEntity
  8
LINEA-SPESSA
100
AcDbLine
 10
56.15628242291859
 20
-0.0000000031795935
 30
0.0
 11
56.15628242291859
 21
112.0695743438991
 31
0.0
  0
LINE
  5
30E
330
2BB
100
AcDbEntity
  8
LINEA-SPESSA
100
AcDbLine
 10
488.7117946730577
 20
-0.0000000031795935
 30
0.0
 11
488.7117946730577
 21
25.46924867803318
 31
0.0
  0
LINE
  5
30F
330
2BB
100
AcDbEntity
  8
LINEA-SPESSA
100
AcDbLine
 10
489.2651562596729
 20
28.82704556675162
 30
0.0
 11
830.0531993972835
 21
28.82704556683165
 31
0.0
  0
ARC
  5
310
330
2BB
100
AcDbEntity
  8
LINEA-SPESSA
100
AcDbCircle
 10
582.9343187278282
 20
-148.8866003155344
 30
0.0
 40
201.1467722138598
100
AcDbArc
 50
88.95702487215094
 51
117.712289094852
  0
LINE
  5
311
330
2BB
100
AcDbEntity
  8
LINEA-SPESSA
100
AcDbLine
 10
586.5956616100593
 20
52.22684662514803
 30
0.0
 11
940.6189880584861
 21
52.22684662469692
 31
0.0
  0
ARC
  5
312
330
2BB
100
AcDbEntity
  8
LINEA-SPESSA
100
AcDbCircle
 10
574.8573436681908
 20
-30.68556539293786
 30
0.0
 40
104.7034215053148
100
AcDbArc
 50
91.59375481195821
 51
143.4249377411641
  0
ARC
  5
313
330
2BB
100
AcDbEntity
  8
LINEA-SPESSA
100
AcDbCircle
 10
883.2147617930459
 20
-3287.675980652238
 30
0.0
 40
3376.033446263906
100
AcDbArc
 50
91.89329039163004
 51
95.29017083169794
  0
LINE
  5
314
330
2BB
100
AcDbEntity
  8
LINEA-SPESSA
100
AcDbLine
 10
771.676903639629
 20
86.51446099315945
 30
0.0
 11
940.6189880586461
 21
86.51446099300665
 31
0.0
  0
ARC
  5
315
330
2BB
100
AcDbEntity
  8
LINEA-SPESSA
100
AcDbCircle
 10
855.5602600197161
 20
27.60482765371125
 30
0.0
 40
25.53632624759742
100
AcDbArc
 50
105.3783200983826
 51
177.2566652212703
  0
LINE
  5
316
330
2BB
100
AcDbEntity
  8
LINEA-SPESSA
100
AcDbLine
 10
830.0531993972835
 20
28.82704556683165
 30
0.0
 11
830.0531993972835
 21
-0.0000000031795935
 31
0.0
  0
ARC
  5
317
330
2BB
100
AcDbEntity
  8
LINEA-SPESSA
100
AcDbCircle
 10
499.1760275302803
 20
25.46924867803318
 30
0.0
 40
10.46423285721732
100
AcDbArc
 50
143.4249377411641
 51
180.0
  0
LINE
  5
318
330
2BB
100
AcDbEntity
  8
LINEA-SPESSA
100
AcDbLine
 10
25.12236517031851
 20
-255.5670266317684
 30
0.0
 11
224.9539110858895
 21
-256.3662968182398
 31
0.0
  0
ARC
  5
319
330
2BB
100
AcDbEntity
  8
LINEA-SPESSA
100
AcDbCircle
 10
1316.554094092265
 20
0.3996350900561083
 30
0.0
 40
1316.554154746143
100
AcDbArc
 50
180.0173919201419
 51
191.2109413421901
  0
ARC
  5
31A
330
2BB
100
AcDbEntity
  8
LINEA-SPESSA
100
AcDbCircle
 10
1194.682521019378
 20
-10.31271908051712
 30
0.0
 40
1098.801868197643
100
AcDbArc
 50
179.4622470432285
 51
192.9399061303311
  0
ARC
  5
31B
330
2BB
100
AcDbEntity
  8
LINEA-SPESSA
100
AcDbCircle
 10
199.2623114276502
 20
-99.12939967104467
 30
0.0
 40
234.0885559176401
100
AcDbArc
 50
221.9347577210192
 51
247.2910353926562
  0
ARC
  5
31C
330
2BB
100
AcDbEntity
  8
LINEA-SPESSA
100
AcDbCircle
 10
220.1202143890696
 20
-207.9810431962832
 30
0.0
 40
107.804255947992
100
AcDbArc
 50
206.668327153736
 51
263.261239606573
  0
ARC
  5
31D
330
2BB
100
AcDbEntity
  8
LINEA-SPESSA
100
AcDbCircle
 10
157.4812148261553
 20
1959.531740081314
 30
0.0
 40
2275.121518084585
100
AcDbArc
 50
268.7762634375209
 51
275.7757137353773
  0
ARC
  5
31E
330
2BB
100
AcDbEntity
  8
LINEA-SPESSA
100
AcDbCircle
 10
109.0731958928663
 20
2258.428865332957
 30
0.0
 40
2577.436233451804
100
AcDbArc
 50
276.1776951822148
 51
288.8217583001435
  0
ARC
  5
31F
330
2BB
100
AcDbEntity
  8
LINEA-SPESSA
100
AcDbCircle
 10
223.9522272692702
 20
1912.559107666093
 30
0.0
 40
2168.925635790209
100
AcDbArc
 50
270.0264611459636
 51
276.2475704004133
  0
ARC
  5
320
330
2BB
100
AcDbEntity
  8
LINEA-SPESSA
100
AcDbCircle
 10
39.33941853017313
 20
3121.425921682952
 30
0.0
 40
3391.101499729154
100
AcDbArc
 50
277.1255469950947
 51
283.5926221259341
  0
ARC
  5
321
330
2BB
100
AcDbEntity
  8
LINEA-SPESSA
100
AcDbCircle
 10
900.2975832668017
 20
-181.5463409453514
 30
0.0
 40
61.43328344351985
100
AcDbArc
 50
130.7746067122014
 51
208.9208987959005
  0
LINE
  5
322
330
2BB
100
AcDbEntity
  8
LINEA-SPESSA
100
AcDbLine
 10
867.0104585148074
 20
-132.4840320501025
 30
0.0
 11
940.6189880586461
 21
-132.4840320501025
 31
0.0
  0
ARC
  5
323
330
2BB
100
AcDbEntity
  8
LINEA-SPESSA
100
AcDbCircle
 10
867.0104585148074
 20
-142.9482649073179
 30
0.0
 40
10.46423285721732
100
AcDbArc
 50
90.0
 51
130.7746067122014
  0
LINE
  5
324
330
2BB
100
AcDbEntity
  8
LINEA-SPESSA
100
AcDbLine
 10
76.99564223685593
 20
-0.0000000031795935
 30
0.0
 11
76.99564223685593
 21
-118.2582563078685
 31
0.0
  0
LINE
  5
325
330
2BB
100
AcDbEntity
  8
LINEA-SPESSA
100
AcDbLine
 10
66.53140937963326
 20
-128.7224891650839
 30
0.0
 11
48.93601617391687
 21
-128.7224891650839
 31
0.0
  0
ARC
  5
326
330
2BB
100
AcDbEntity
  8
LINEA-SPESSA
100
AcDbCircle
 10
863.6883031678443
 20
-2.657825469061208
 30
0.0
 40
833.3765907944327
100
AcDbArc
 50
179.8172705571477
 51
188.075461176064
  0
ARC
  5
327
330
2BB
100
AcDbEntity
  8
LINEA-SPESSA
100
AcDbCircle
 10
48.93601617391687
 20
-118.2582563078685
 30
0.0
 40
10.46423285721732
100
AcDbArc
 50
188.0754611756512
 51
270.0
  0
ARC
  5
328
330
2BB
100
AcDbEntity
  8
LINEA-SPESSA
100
AcDbCircle
 10
66.53140937963326
 20
-118.2582563078685
 30
0.0
 40
10.46423285721732
100
AcDbArc
 50
270.0
 51
0.0
  0
LINE
  5
329
330
2BB
100
AcDbEntity
  8
LINEA-SPESSA
100
AcDbLine
 10
56.15628242291859
 20
-0.0000000031795935
 30
0.0
 11
56.15628242291859
 21
-112.0695743502656
 31
0.0
  0
LINE
  5
32A
330
2BB
100
AcDbEntity
  8
LINEA-SPESSA
100
AcDbLine
 10
488.7117946730577
 20
-0.0000000031795935
 30
0.0
 11
488.7117946730577
 21
-25.46924868439237
 31
0.0
  0
LINE
  5
32B
330
2BB
100
AcDbEntity
  8
LINEA-SPESSA
100
AcDbLine
 10
489.2651562596729
 20
-28.82704557311808
 30
0.0
 11
830.0531993972835
 21
-28.82704557319084
 31
0.0
  0
ARC
  5
32C
330
2BB
100
AcDbEntity
  8
LINEA-SPESSA
100
AcDbCircle
 10
582.9343187278282
 20
148.8866003091752
 30
0.0
 40
201.1467722138598
100
AcDbArc
 50
242.2877109051479
 51
271.042975127849
  0
LINE
  5
32D
330
2BB
100
AcDbEntity
  8
LINEA-SPESSA
100
AcDbLine
 10
586.5956616100593
 20
-52.22684663151449
 30
0.0
 11
940.6189880584861
 21
-52.2268466310561
 31
0.0
  0
ARC
  5
32E
330
2BB
100
AcDbEntity
  8
LINEA-SPESSA
100
AcDbCircle
 10
574.8573436681908
 20
30.68556538657139
 30
0.0
 40
104.7034215053148
100
AcDbArc
 50
216.5750622588358
 51
268.4062451880417
  0
ARC
  5
32F
330
2BB
100
AcDbEntity
  8
LINEA-SPESSA
100
AcDbCircle
 10
883.2147617930459
 20
3287.675980645872
 30
0.0
 40
3376.033446263906
100
AcDbArc
 50
264.709829168302
 51
268.1067096083699
  0
LINE
  5
330
330
2BB
100
AcDbEntity
  8
LINEA-SPESSA
100
AcDbLine
 10
771.676903639629
 20
-86.51446099951863
 30
0.0
 11
940.6189880586461
 21
-86.51446099936583
 31
0.0
  0
ARC
  5
331
330
2BB
100
AcDbEntity
  8
LINEA-SPESSA
100
AcDbCircle
 10
855.5602600197161
 20
-27.60482766007771
 30
0.0
 40
25.53632624759742
100
AcDbArc
 50
182.7433347787296
 51
254.6216799016173
  0
LINE
  5
332
330
2BB
100
AcDbEntity
  8
LINEA-SPESSA
100
AcDbLine
 10
830.0531993972835
 20
-28.82704557319084
 30
0.0
 11
830.0531993972835
 21
-0.0000000031795935
 31
0.0
  0
ARC
  5
333
330
2BB
100
AcDbEntity
  8
LINEA-SPESSA
100
AcDbCircle
 10
499.1760275302803
 20
-25.46924868439237
 30
0.0
 40
10.46423285721732
100
AcDbArc
 50
180.0
 51
216.5750622588358
  0
LINE
  5
334
330
2BB
100
AcDbEntity
  8
LINEA-SPESSA
100
AcDbLine
 10
848.7882485010342
 20
52.22684662484971
 30
0.0
 11
848.7882485011796
 21
-52.22684663113614
 31
0.0
  0
LINE
  5
335
330
2BB
100
AcDbEntity
  8
LINEA-SPESSA
100
AcDbLine
 10
848.7882485010342
 20
-0.0000000031795935
 30
0.0
 11
940.6189880584861
 21
-0.0000000031795935
 31
0.0
  0
LINE
  5
336
330
2BB
100
AcDbEntity
  8
LINEA-SPESSA
100
AcDbLine
 10
726.0201822288508
 20
-244.0806658299843
 30
0.0
 11
726.0201822288508
 21
-317.3082132989002
 31
0.0
  0
LINE
  5
337
330
2BB
100
AcDbEntity
  8
LINEA-SPESSA
100
AcDbLine
 10
726.0201822288508
 20
-317.3082132989002
 30
0.0
 11
108.8923355369042
 21
-317.3082132989002
 31
0.0
  0
LINE
  5
338
330
2BB
100
AcDbEntity
  8
LINEA-SPESSA
100
AcDbLine
 10
108.8923355369042
 20
-315.070871994234
 30
0.0
 11
108.8923355369042
 21
-317.3082132989002
 31
0.0
  0
LINE
  5
339
330
2BB
100
AcDbEntity
  8
LINEA-SPESSA
100
AcDbLine
 10
202.4618559459631
 20
-350.4843345531189
 30
0.0
 11
632.4506618196465
 21
-350.4843345531189
 31
0.0
  0
LINE
  5
33A
330
2BB
100
AcDbEntity
  8
LINEA-SPESSA
100
AcDbLine
 10
722.3431069830257
 20
-324.9109721908098
 30
0.0
 11
632.4506618196465
 21
-350.4843345531189
 31
0.0
  0
LINE
  5
33B
330
2BB
100
AcDbEntity
  8
LINEA-SPESSA
100
AcDbLine
 10
722.3431069831859
 20
-324.9109721907298
 30
0.0
 11
722.3431069830257
 21
-317.3082132989002
 31
0.0
  0
LINE
  5
33C
330
2BB
100
AcDbEntity
  8
LINEA-SPESSA
100
AcDbLine
 10
112.5694107827293
 20
-324.9109721908098
 30
0.0
 11
202.4618559459631
 21
-350.4843345531189
 31
0.0
  0
LINE
  5
33D
330
2BB
100
AcDbEntity
  8
LINEA-SPESSA
100
AcDbLine
 10
112.5694107825693
 20
-324.9109721907298
 30
0.0
 11
112.5694107827293
 21
-317.3082132989002
 31
0.0
  0
LINE
  5
33E
330
2BB
100
AcDbEntity
  8
LINEA-SPESSA
100
AcDbLine
 10
781.1063210035791
 20
229.8534772143393
 30
0.0
 11
781.1063210037391
 21
299.0951278033535
 31
0.0
  0
LINE
  5
33F
330
2BB
100
AcDbEntity
  8
LINEA-SPESSA
100
AcDbLine
 10
783.1991675751488
 20
301.1879743747704
 30
0.0
 11
864.9625868675066
 21
301.1879743747704
 31
0.0
  0
LINE
  5
340
330
2BB
100
AcDbEntity
  8
LINEA-SPESSA
100
AcDbLine
 10
867.0554334389162
 20
299.0951278033535
 30
0.0
 11
867.0554334390617
 21
205.0322090587869
 31
0.0
  0
LINE
  5
341
330
2BB
100
AcDbEntity
  8
LINEA-SPESSA
100
AcDbLine
 10
867.0554334389162
 20
231.8467997385014
 30
0.0
 11
781.1063210035791
 21
231.8467997385014
 31
0.0
  0
ARC
  5
342
330
2BB
100
AcDbEntity
  8
LINEA-SPESSA
100
AcDbCircle
 10
783.1991675751488
 20
299.0951278033535
 30
0.0
 40
2.092846571443464
100
AcDbArc
 50
90.0
 51
180.0
  0
ARC
  5
343
330
2BB
100
AcDbEntity
  8
LINEA-SPESSA
100
AcDbCircle
 10
864.9625868675066
 20
299.0951278033535
 30
0.0
 40
2.092846571443464
100
AcDbArc
 50
0.0
 51
90.0
  0
LINE
  5
344
330
2BB
100
AcDbEntity
  8
LINEA-SPESSA
100
AcDbLine
 10
583.1445890874747
 20
275.033952952006
 30
0.0
 11
583.1445890874747
 21
315.9426640208184
 31
0.0
  0
LINE
  5
345
330
2BB
100
AcDbEntity
  8
LINEA-SPESSA
100
AcDbLine
 10
583.1445890874747
 20
315.9426640208184
 30
0.0
 11
319.8929102537367
 21
315.9426640208184
 31
0.0
  0
LINE
  5
346
330
2BB
100
AcDbEntity
  8
LINEA-SPESSA
100
AcDbLine
 10
319.8929102537367
 20
315.9426640208184
 30
0.0
 11
319.8929102537367
 21
309.7854178344714
 31
0.0
  0
LINE
  5
347
330
2BB
100
AcDbEntity
  8
LINEA-SPESSA
100
AcDbLine
 10
575.6588572368346
 20
315.9426640208184
 30
0.0
 11
575.6588572368346
 21
340.6018757013589
 31
0.0
  0
LINE
  5
348
330
2BB
100
AcDbEntity
  8
LINEA-SPESSA
100
AcDbLine
 10
575.6588572368346
 20
340.6018757013589
 30
0.0
 11
552.6210091942194
 21
369.515665446881
 31
0.0
  0
LINE
  5
349
330
2BB
100
AcDbEntity
  8
LINEA-SPESSA
100
AcDbLine
 10
552.6210091942194
 20
369.515665446881
 30
0.0
 11
350.4164901471522
 21
369.515665446881
 31
0.0
  0
LINE
  5
34A
330
2BB
100
AcDbEntity
  8
LINEA-SPESSA
100
AcDbLine
 10
327.3786421045224
 20
315.9426640208184
 30
0.0
 11
327.3786421045224
 21
340.6018757013589
 31
0.0
  0
LINE
  5
34B
330
2BB
100
AcDbEntity
  8
LINEA-SPESSA
100
AcDbLine
 10
327.3786421045224
 20
340.6018757013589
 30
0.0
 11
350.4164901471522
 21
369.515665446881
 31
0.0
  0
LINE
  5
34C
330
2BB
100
AcDbEntity
  8
LINEA-SPESSA
100
AcDbLine
 10
575.6588572368346
 20
340.6018757013589
 30
0.0
 11
327.3786421045224
 21
340.6018757013589
 31
0.0
  0
LINE
  5
34D
330
2BB
100
AcDbEntity
  8
LINEA-SPESSA
100
AcDbLine
 10
451.5187496706785
 20
315.9426640208184
 30
0.0
 11
451.5187496706785
 21
296.1569289153922
 31
0.0
  0
LINE
  5
34E
330
2BB
100
AcDbEntity
  8
LINEA-SPESSA
100
AcDbLine
 10
470.4689895049959
 20
315.9426640208184
 30
0.0
 11
470.4689895049959
 21
293.5450016643371
 31
0.0
  0
LINE
  5
34F
330
2BB
100
AcDbEntity
  8
LINEA-SPESSA
100
AcDbLine
 10
491.0669871194841
 20
315.9426640208184
 30
0.0
 11
491.0669871194841
 21
290.5431394058832
 31
0.0
  0
LINE
  5
350
330
2BB
100
AcDbEntity
  8
LINEA-SPESSA
100
AcDbLine
 10
514.9610129755601
 20
315.9426640208184
 30
0.0
 11
514.9610129755601
 21
286.8476653060715
 31
0.0
  0
LINE
  5
351
330
2BB
100
AcDbEntity
  8
LINEA-SPESSA
100
AcDbLine
 10
529.7918583596183
 20
315.9426640208184
 30
0.0
 11
529.7918583597638
 21
284.4382850565743
 31
0.0
  0
LINE
  5
352
330
2BB
100
AcDbEntity
  8
LINEA-SPESSA
100
AcDbLine
 10
551.2142475454457
 20
315.9426640208184
 30
0.0
 11
551.2142475454457
 21
280.8011021811034
 31
0.0
  0
LINE
  5
353
330
2BB
100
AcDbEntity
  8
LINEA-SPESSA
100
AcDbLine
 10
567.6928507095144
 20
315.9426640208184
 30
0.0
 11
567.69285070982
 21
277.8766268531689
 31
0.0
  0
LINE
  5
354
330
2BB
100
AcDbEntity
  8
LINEA-SPESSA
100
AcDbLine
 10
432.5685098363756
 20
315.9426640208184
 30
0.0
 11
432.5685098363756
 21
298.62575264732
 31
0.0
  0
LINE
  5
355
330
2BB
100
AcDbEntity
  8
LINEA-SPESSA
100
AcDbLine
 10
411.9705122218874
 20
315.9426640208184
 30
0.0
 11
411.9705122217274
 21
301.147418593413
 31
0.0
  0
LINE
  5
356
330
2BB
100
AcDbEntity
  8
LINEA-SPESSA
100
AcDbLine
 10
388.0764863656513
 20
315.9426640208184
 30
0.0
 11
388.0764863656513
 21
303.8620434794793
 31
0.0
  0
LINE
  5
357
330
2BB
100
AcDbEntity
  8
LINEA-SPESSA
100
AcDbLine
 10
373.2456409817532
 20
315.9426640208184
 30
0.0
 11
373.2456409815931
 21
305.3355042463663
 31
0.0
  0
LINE
  5
358
330
2BB
100
AcDbEntity
  8
LINEA-SPESSA
100
AcDbLine
 10
351.8232517957658
 20
315.9426640208184
 30
0.0
 11
351.8232517957658
 21
307.2741833909895
 31
0.0
  0
LINE
  5
359
330
2BB
100
AcDbEntity
  8
LINEA-SPESSA
100
AcDbLine
 10
335.3446486315515
 20
315.9426640208184
 30
0.0
 11
335.3446486315515
 21
308.6266584741679
 31
0.0
  0
LINE
  5
35A
330
2BB
100
AcDbEntity
  8
LINEA-SPESSA
100
AcDbLine
 10
576.064236995473
 20
315.9426640208184
 30
0.0
 11
576.0642369956185
 21
276.348620958066
 31
0.0
  0
LINE
  5
35B
330
2BB
100
AcDbEntity
  8
LINEA-SPESSA
100
AcDbLine
 10
326.9732623458985
 20
315.9426640208184
 30
0.0
 11
326.9732623458985
 21
309.2675828757346
 31
0.0
  0
ARC
  5
35C
330
2BB
100
AcDbEntity
  8
LINEA-SPESSA
100
AcDbCircle
 10
751.1101467982079
 20
144.0719348865604
 30
0.0
 40
1316.554154746143
100
AcDbArc
 50
258.7890586573198
 51
269.9826080802749
  0
ARC
  5
35D
330
2BB
100
AcDbEntity
  8
LINEA-SPESSA
100
AcDbCircle
 10
659.8211025657946
 20
-971.6565214042057
 30
0.0
 40
241.3591522363101
100
AcDbArc
 50
201.7469398014473
 51
226.7168446219304
  0
ARC
  5
35E
330
2BB
100
AcDbEntity
  8
LINEA-SPESSA
100
AcDbCircle
 10
2710.242251789386
 20
-1012.493097561251
 30
0.0
 40
2275.121518084585
100
AcDbArc
 50
175.9064049111183
 51
181.2237365624701
  0
ARC
  5
35F
330
2BB
100
AcDbEntity
  8
LINEA-SPESSA
100
AcDbCircle
 10
750.3108766115765
 20
144.0719348865604
 30
0.0
 40
1316.554154746143
100
AcDbArc
 50
270.017391919725
 51
281.2109413426802
  0
ARC
  5
360
330
2BB
100
AcDbEntity
  8
LINEA-SPESSA
100
AcDbCircle
 10
841.5999208439897
 20
-971.6565214042057
 30
0.0
 40
241.3591522363101
100
AcDbArc
 50
313.2831553780695
 51
338.2530601985527
  0
LINE
  5
361
330
2BB
100
AcDbEntity
  8
LINEA-SPESSA
100
AcDbLine
 10
994.7911775316169
 20
-443.9541301587887
 30
0.0
 11
1068.018725000525
 21
-443.9541301587887
 31
0.0
  0
LINE
  5
362
330
2BB
100
AcDbEntity
  8
LINEA-SPESSA
100
AcDbLine
 10
1068.018725000525
 20
-1057.404901604764
 30
0.0
 11
1068.018725000525
 21
-1061.081976850735
 31
0.0
  0
LINE
  5
363
330
2BB
100
AcDbEntity
  8
LINEA-SPESSA
100
AcDbLine
 10
1065.781383695939
 20
-1061.081976850735
 30
0.0
 11
1068.018725000525
 21
-1061.081976850735
 31
0.0
  0
LINE
  5
364
330
2BB
100
AcDbEntity
  8
LINEA-SPESSA
100
AcDbLine
 10
1101.194846254758
 20
-967.5124564416764
 30
0.0
 11
1101.194846254758
 21
-537.5236505680004
 31
0.0
  0
LINE
  5
365
330
2BB
100
AcDbEntity
  8
LINEA-SPESSA
100
AcDbLine
 10
1075.621483892435
 20
-447.6312054046139
 30
0.0
 11
1101.194846254758
 21
-537.5236505680004
 31
0.0
  0
LINE
  5
366
330
2BB
100
AcDbEntity
  8
LINEA-SPESSA
100
AcDbLine
 10
1075.621483892289
 20
-447.631205404461
 30
0.0
 11
1068.018725000525
 21
-447.6312054046139
 31
0.0
  0
LINE
  5
367
330
2BB
100
AcDbEntity
  8
LINEA-SPESSA
100
AcDbLine
 10
1075.621483892435
 20
-1057.404901604917
 30
0.0
 11
1101.194846254758
 21
-967.5124564416764
 31
0.0
  0
LINE
  5
368
330
2BB
100
AcDbEntity
  8
LINEA-SPESSA
100
AcDbLine
 10
1075.621483892289
 20
-1057.40490160507
 30
0.0
 11
1068.018725000525
 21
-1057.404901604917
 31
0.0
  0
LINE
  5
369
330
2BB
100
AcDbEntity
  8
LINEA-SPESSA
100
AcDbLine
 10
475.6765587497065
 20
-586.8297233001722
 30
0.0
 11
426.99840109871
 21
-586.8297233001722
 31
0.0
  0
LINE
  5
36A
330
2BB
100
AcDbEntity
  8
LINEA-SPESSA
100
AcDbLine
 10
426.99840109871
 20
-850.0814021339028
 30
0.0
 11
440.9250938672339
 21
-850.0814021339028
 31
0.0
  0
LINE
  5
36B
330
2BB
100
AcDbEntity
  8
LINEA-SPESSA
100
AcDbLine
 10
426.99840109871
 20
-594.315455150805
 30
0.0
 11
402.9491991821851
 21
-594.315455150805
 31
0.0
  0
LINE
  5
36C
330
2BB
100
AcDbEntity
  8
LINEA-SPESSA
100
AcDbLine
 10
402.9491991821851
 20
-594.315455150805
 30
0.0
 11
374.035409436663
 21
-617.3533031934202
 31
0.0
  0
LINE
  5
36D
330
2BB
100
AcDbEntity
  8
LINEA-SPESSA
100
AcDbLine
 10
374.035409436663
 20
-617.3533031934202
 30
0.0
 11
374.035409436663
 21
-819.5578222404947
 31
0.0
  0
LINE
  5
36E
330
2BB
100
AcDbEntity
  8
LINEA-SPESSA
100
AcDbLine
 10
426.99840109871
 20
-842.5956702831172
 30
0.0
 11
402.9491991821851
 21
-842.5956702831172
 31
0.0
  0
LINE
  5
36F
330
2BB
100
AcDbEntity
  8
LINEA-SPESSA
100
AcDbLine
 10
402.9491991821851
 20
-842.5956702831172
 30
0.0
 11
374.035409436663
 21
-819.5578222404947
 31
0.0
  0
LINE
  5
370
330
2BB
100
AcDbEntity
  8
LINEA-SPESSA
100
AcDbLine
 10
426.99840109871
 20
-850.0814021339028
 30
0.0
 11
426.99840109871
 21
-842.5956702831172
 31
0.0
  0
LINE
  5
371
330
2BB
100
AcDbEntity
  8
LINEA-SPESSA
100
AcDbLine
 10
426.99840109871
 20
-586.8297233001722
 30
0.0
 11
426.99840109871
 21
-594.3154551509578
 31
0.0
  0
ARC
  5
372
330
2BB
100
AcDbEntity
  8
LINEA-SPESSA
100
AcDbCircle
 10
3009.139377041108
 20
-1060.901116494547
 30
0.0
 40
2577.436233451804
100
AcDbArc
 50
164.8861993153287
 51
169.4011643226545
  0
LINE
  5
373
330
2BB
100
AcDbEntity
  8
LINEA-SPESSA
100
AcDbLine
 10
1068.018725000525
 20
-447.6312054046139
 30
0.0
 11
1068.018725000525
 21
-443.9541301587887
 31
0.0
  0
CIRCLE
  5
374
330
2BB
100
AcDbEntity
  8
LINEA-SPESSA
100
AcDbCircle
 10
961.5963354605483
 20
-210.8858237519889
 30
0.0
 40
10.5858358198545
  0
ARC
  5
375
330
2BB
100
AcDbEntity
  8
LINEA-SPESSA
100
AcDbCircle
 10
-1507.718353638542
 20
-1060.901116496898
 30
0.0
 40
2577.436233459533
100
AcDbArc
 50
15.11380068467123
 51
18.82175830014351
  0
ARC
  5
376
330
2BB
100
AcDbEntity
  8
LINEA-SPESSA
100
AcDbCircle
 10
-1507.718353631178
 20
-1060.901116494547
 30
0.0
 40
2577.436233451804
100
AcDbArc
 50
13.84904143203424
 51
15.11380068467123
  0
LINE
  5
377
330
2BB
100
AcDbEntity
  8
LINEA-SPESSA
100
AcDbLine
 10
940.6189880586461
 20
-184.132916444003
 30
0.0
 11
940.6189880586461
 21
-210.8858237519889
 31
0.0
  0
LINE
  5
378
330
2BB
100
AcDbEntity
  8
LINEA-SPESSA
100
AcDbLine
 10
940.6189880586461
 20
-210.8858237519889
 30
0.0
 11
991.9600729036757
 21
-210.8858237519889
 31
0.0
  0
LINE
  5
379
330
2BB
100
AcDbEntity
  8
LINEA-SPESSA
100
AcDbLine
 10
991.9600729036757
 20
-210.8858237519889
 30
0.0
 11
991.9600729036757
 21
-170.283855798465
 31
0.0
  0
LINE
  5
37A
330
2BB
100
AcDbEntity
  8
LINEA-SPESSA
100
AcDbLine
 10
961.5963354605629
 20
-184.1329164440758
 30
0.0
 11
961.5963354605483
 21
-210.8858237519889
 31
0.0
  0
LINE
  5
37B
330
2BB
100
AcDbEntity
  8
LINEA-SPESSA
100
AcDbLine
 10
1149.114104625114
 20
-0.0000000031795935
 30
0.0
 11
975.9599809082866
 21
-0.0000000033833203
 31
0.0
  0
LINE
  5
37C
330
2BB
100
AcDbEntity
  8
LINEA-SPESSA
100
AcDbLine
 10
1274.476391171134
 20
-0.0000000031795935
 30
0.0
 11
1303.221963881136
 21
-0.0000000031795935
 31
0.0
  0
LINE
  5
37D
330
2BB
100
AcDbEntity
  8
LINEA-SPESSA
100
AcDbLine
 10
1704.666744614194
 20
156.4999999968204
 30
0.0
 11
1595.310505901972
 21
156.4999999968204
 31
0.0
  0
LINE
  5
37E
330
2BB
100
AcDbEntity
  8
LINEA-SPESSA
100
AcDbLine
 10
1595.310505901972
 20
156.4999999968204
 30
0.0
 11
1595.310505901972
 21
-156.5000000031796
 31
0.0
  0
LINE
  5
37F
330
2BB
100
AcDbEntity
  8
LINEA-SPESSA
100
AcDbLine
 10
1595.310505901972
 20
-156.5000000031796
 30
0.0
 11
1704.666744614194
 21
-156.5000000031796
 31
0.0
  0
LINE
  5
380
330
2BB
100
AcDbEntity
  8
LINEA-SPESSA
100
AcDbLine
 10
1704.666744614194
 20
-156.5000000031796
 30
0.0
 11
1704.666744614194
 21
156.4999999968204
 31
0.0
  0
LINE
  5
381
330
2BB
100
AcDbEntity
  8
LINEA-SPESSA
100
AcDbLine
 10
1704.666744614194
 20
156.4999999968204
 30
0.0
 11
1755.688796406422
 21
133.1202899005074
 31
0.0
  0
LINE
  5
382
330
2BB
100
AcDbEntity
  8
LINEA-SPESSA
100
AcDbLine
 10
1755.688796406422
 20
133.1202899005074
 30
0.0
 11
1755.688796406422
 21
-133.1202899068739
 31
0.0
  0
LINE
  5
383
330
2BB
100
AcDbEntity
  8
LINEA-SPESSA
100
AcDbLine
 10
1704.666744614194
 20
-156.5000000031796
 30
0.0
 11
1755.688796406422
 21
-133.1202899068739
 31
0.0
  0
LINE
  5
384
330
2BB
100
AcDbEntity
  8
LINEA-SPESSA
100
AcDbLine
 10
1776.919327357885
 20
113.7876998696592
 30
0.0
 11
1846.0
 21
113.7876998697393
 31
0.0
  0
LINE
  5
385
330
2BB
100
AcDbEntity
  8
LINEA-SPESSA
100
AcDbLine
 10
1846.0
 20
113.7876998697393
 30
0.0
 11
1845.99999999984
 21
74.57548477751697
 31
0.0
  0
LINE
  5
386
330
2BB
100
AcDbEntity
  8
LINEA-SPESSA
100
AcDbLine
 10
1755.688796406422
 20
123.5185516194542
 30
0.0
 11
1776.919327357885
 21
123.5185516194542
 31
0.0
  0
LINE
  5
387
330
2BB
100
AcDbEntity
  8
LINEA-SPESSA
100
AcDbLine
 10
1776.919327357885
 20
123.5185516194542
 30
0.0
 11
1776.919327357885
 21
-123.5185516258934
 31
0.0
  0
LINE
  5
388
330
2BB
100
AcDbEntity
  8
LINEA-SPESSA
100
AcDbLine
 10
1755.688796406422
 20
-123.5185516258207
 30
0.0
 11
1776.919327357885
 21
-123.5185516258934
 31
0.0
  0
LINE
  5
389
330
2BB
100
AcDbEntity
  8
LINEA-SPESSA
100
AcDbLine
 10
1845.99999999984
 20
93.65415165349986
 30
0.0
 11
1776.919327357885
 21
93.65415165349986
 31
0.0
  0
LINE
  5
38A
330
2BB
100
AcDbEntity
  8
LINEA-SPESSA
100
AcDbLine
 10
1845.99999999984
 20
74.57548477743694
 30
0.0
 11
1776.919327357885
 21
74.57548477751697
 31
0.0
  0
LINE
  5
38B
330
2BB
100
AcDbEntity
  8
LINEA-SPESSA
100
AcDbLine
 10
1845.99999999984
 20
41.66833503675298
 30
0.0
 11
1776.919327357885
 21
41.66833503667294
 31
0.0
  0
LINE
  5
38C
330
2BB
100
AcDbEntity
  8
LINEA-SPESSA
100
AcDbLine
 10
1845.99999999984
 20
22.58966816069733
 30
0.0
 11
1776.919327357885
 21
22.58966816069733
 31
0.0
  0
LINE
  5
38D
330
2BB
100
AcDbEntity
  8
LINEA-SPESSA
100
AcDbLine
 10
1845.99999999984
 20
-22.58966816758765
 30
0.0
 11
1776.919327357885
 21
-22.58966816758765
 31
0.0
  0
LINE
  5
38E
330
2BB
100
AcDbEntity
  8
LINEA-SPESSA
100
AcDbLine
 10
1845.99999999984
 20
-41.66833504349779
 30
0.0
 11
1776.919327357885
 21
-41.66833504357055
 31
0.0
  0
LINE
  5
38F
330
2BB
100
AcDbEntity
  8
LINEA-SPESSA
100
AcDbLine
 10
1845.99999999984
 20
-74.57548478433455
 30
0.0
 11
1776.919327357885
 21
-74.57548478433455
 31
0.0
  0
LINE
  5
390
330
2BB
100
AcDbEntity
  8
LINEA-SPESSA
100
AcDbLine
 10
1845.99999999984
 20
-93.65415166031743
 30
0.0
 11
1776.919327357885
 21
-93.65415166031743
 31
0.0
  0
LINE
  5
391
330
2BB
100
AcDbEntity
  8
LINEA-SPESSA
100
AcDbLine
 10
1846.0
 20
-113.5109666747375
 30
0.0
 11
1776.919327357885
 21
-113.5109666748176
 31
0.0
  0
LINE
  5
392
330
2BB
100
AcDbEntity
  8
LINEA-SPESSA
100
AcDbLine
 10
1845.999999999694
 20
41.66833503667294
 30
0.0
 11
1845.999999999694
 21
22.58966816069733
 31
0.0
  0
LINE
  5
393
330
2BB
100
AcDbEntity
  8
LINEA-SPESSA
100
AcDbLine
 10
1845.999999999694
 20
-22.58966816758765
 30
0.0
 11
1845.999999999534
 21
-41.66833504357055
 31
0.0
  0
LINE
  5
394
330
2BB
100
AcDbEntity
  8
LINEA-SPESSA
100
AcDbLine
 10
1845.999999999694
 20
-74.57548478433455
 30
0.0
 11
1845.99999999984
 21
-113.5109666747375
 31
0.0
  0
LINE
  5
395
330
2BB
100
AcDbEntity
  8
LINEA-SPESSA
100
AcDbLine
 10
1835.375684852028
 20
74.57548477743694
 30
0.0
 11
1835.375684852028
 21
41.66833503675298
 31
0.0
  0
LINE
  5
396
330
2BB
100
AcDbEntity
  8
LINEA-SPESSA
100
AcDbLine
 10
1835.375684852028
 20
-74.5754847838034
 30
0.0
 11
1835.375684852028
 21
-41.66833504311216
 31
0.0
  0
LINE
  5
397
330
2BB
100
AcDbEntity
  8
LINEA-SPESSA
100
AcDbLine
 10
1835.375684852028
 20
22.58966816069733
 30
0.0
 11
1835.375684852028
 21
-22.58966816758765
 31
0.0
  0
LINE
  5
398
330
2BB
100
AcDbEntity
  8
LINEA-SPESSA
100
AcDbLine
 10
1595.310505901972
 20
153.3889525789491
 30
0.0
 11
1369.700855769319
 21
153.3889525789491
 31
0.0
  0
LINE
  5
399
330
2BB
100
AcDbEntity
  8
LINEA-SPESSA
100
AcDbLine
 10
1324.99999999984
 20
156.4999999968204
 30
0.0
 11
1369.700855769319
 21
156.4999999968204
 31
0.0
  0
LINE
  5
39A
330
2BB
100
AcDbEntity
  8
LINEA-SPESSA
100
AcDbLine
 10
1369.700855769319
 20
156.4999999968204
 30
0.0
 11
1369.700855769319
 21
-156.5000000031796
 31
0.0
  0
LINE
  5
39B
330
2BB
100
AcDbEntity
  8
LINEA-SPESSA
100
AcDbLine
 10
1369.700855769319
 20
-156.5000000031796
 30
0.0
 11
1325.0
 21
-156.5000000031796
 31
0.0
  0
LINE
  5
39C
330
2BB
100
AcDbEntity
  8
LINEA-SPESSA
100
AcDbLine
 10
1595.310505901972
 20
-153.3889525853155
 30
0.0
 11
1369.700855769319
 21
-153.3889525853155
 31
0.0
  0
CIRCLE
  5
39D
330
2BB
100
AcDbEntity
  8
LINEA-SPESSA
100
AcDbCircle
 10
1360.756695451578
 20
117.4074419242242
 30
0.0
 40
3.003799886112834
  0
CIRCLE
  5
39E
330
2BB
100
AcDbEntity
  8
LINEA-SPESSA
100
AcDbCircle
 10
1611.497117749153
 20
113.5141399383355
 30
0.0
 40
3.003799886112834
  0
CIRCLE
  5
39F
330
2BB
100
AcDbEntity
  8
LINEA-SPESSA
100
AcDbCircle
 10
1360.756695451578
 20
-117.4074419305834
 30
0.0
 40
3.003799886112834
  0
CIRCLE
  5
3A0
330
2BB
100
AcDbEntity
  8
LINEA-SPESSA
100
AcDbCircle
 10
1611.497117749153
 20
-113.514139944702
 30
0.0
 40
3.003799886112834
  0
ENDBLK
  5
3A2
330
2BB
100
AcDbEntity
  8
0
100
AcDbBlockEnd
  0
ENDSEC
  0
SECTION
  2
ENTITIES
  0
INSERT
  5
28
330
2
100
AcDbEntity
  8
LINEA-SPESSA
100
AcDbBlockReference
 66
     1
  2
CART-R-A2
 10
111219.9938856673
 20
36982.24291437385
 30
0.0
  0
ATTRIB
  5
29
330
28
100
AcDbEntity
  8
CART
 62
     7
100
AcDbText
 10
116454.7420400064
 20
37063.25372775958
 30
0.0
 40
20.0
  1
RS 300/E BLU
 51
15.0
  7
SIMPLEX_INCLINATO
 72
     1
 11
116565.2182304826
 21
37073.25372775958
 31
0.0
100
AcDbAttribute
  2
DENOMINAZIONE
 70
     0
 74
     2
  0
ATTRIB
  5
2C
330
28
100
AcDbEntity
  8
CART
 62
     7
100
AcDbText
 10
116017.3552106682
 20
37060.75372775958
 30
0.0
 40
25.0
  1
-
 51
15.0
  7
SIMPLEX_INCLINATO
 72
     1
 11
116028.0694963825
 21
37073.25372775958
 31
0.0
100
AcDbAttribute
  2
COD
 70
     0
 74
     2
  0
SEQEND
  5
46
330
28
100
AcDbEntity
  8
LINEA-SPESSA
  0
INSERT
  5
47
330
2
100
AcDbEntity
  8
LINEA-SPESSA
100
AcDbBlockReference
  2
RS300EBLUR
 10
114827.0930408866
 20
39944.43479903828
 30
0.0
  0
INSERT
  5
F8
330
2
100
AcDbEntity
  8
LINEA-SPESSA
100
AcDbBlockReference
  2
RS300EBLUL
 10
113805.7601254127
 20
40555.02446720216
 30
0.0
  0
INSERT
  5
1CD
330
2
100
AcDbEntity
  8
LINEA-SPESSA
100
AcDbBlockReference
  2
RS300EBLUU
 10
111959.7601254128
 20
38413.58939689673
 30
0.0
  0
INSERT
  5
2BA
330
2
100
AcDbEntity
  8
LINEA-SPESSA
100
AcDbBlockReference
  2
RS300EBLUU1
 10
114189.2736819337
 20
38413.58939690309
 30
0.0
  0
ENDSEC
  0
SECTION
  2
OBJECTS
  0
DICTIONARY
  5
9
330
0
100
AcDbDictionary
  3
ACAD_GROUP
350
22
  3
ACAD_LAYOUT
350
D
  3
ACAD_MLINESTYLE
350
23
  3
ACAD_PLOTSETTINGS
350
24
  3
ACAD_PLOTSTYLENAME
350
8
  3
ACDBHEADERROUNDTRIPXREC
350
3AC
  3
ACDBVARIABLEDICTIONARY
350
3A4
  0
DICTIONARY
  5
3
330
2
100
AcDbDictionary
280
     1
  3
ACAD_LAYOUTSELFREF
360
3CC
  3
ACAD_SORTENTS
360
4
  0
DICTIONARY
  5
3CD
330
E
100
AcDbDictionary
280
     1
  3
ACAD_LAYOUTSELFREF
360
3CE
  0
DICTIONARY
  5
22
102
{ACAD_REACTORS
330
9
102
}
330
9
100
AcDbDictionary
  0
DICTIONARY
  5
D
102
{ACAD_REACTORS
330
9
102
}
330
9
100
AcDbDictionary
  0
DICTIONARY
  5
23
102
{ACAD_REACTORS
330
9
102
}
330
9
100
AcDbDictionary
  3
STANDARD
350
27
  0
DICTIONARY
  5
24
102
{ACAD_REACTORS
330
9
102
}
330
9
100
AcDbDictionary
  0
ACDBDICTIONARYWDFLT
  5
8
102
{ACAD_REACTORS
330
9
102
}
330
9
100
AcDbDictionary
281
     1
  3
Normal
350
7
100
AcDbDictionaryWithDefault
340
7
  0
DICTIONARY
  5
3AC
102
{ACAD_REACTORS
330
9
102
}
330
9
100
AcDbDictionary
  3
CEPSNTYPE
350
3B6
  3
FINGERPRINTGUID
350
3B7
  3
HYPERLINKBASE
350
3AF
  3
INSUNITS
350
3B5
  3
LAYOUTDICT
350
3B1
  3
LWETCUNION
350
3B4
  3
PLOTSETDICT
350
3B2
  3
PLOTSTYLNAMDICT
350
3B3
  3
PSVPSCALE
350
3B9
  3
PUCSBASE
350
3BC
  3
PUCSORGBACK
350
3C2
  3
PUCSORGBOTTOM
350
3BE
  3
PUCSORGFRONT
350
3C1
  3
PUCSORGLEFT
350
3BF
  3
PUCSORGRIGHT
350
3C0
  3
PUCSORGTOP
350
3BD
  3
PUCSORTHOREF
350
3BA
  3
PUCSORTHOVIEW
350
3BB
  3
STYLESHEET
350
3B0
  3
TSTACKALIGN
350
3AD
  3
TSTACKSIZE
350
3AE
  3
UCSBASE
350
3C5
  3
UCSORGBACK
350
3CB
  3
UCSORGBOTTOM
350
3C7
  3
UCSORGFRONT
350
3CA
  3
UCSORGLEFT
350
3C8
  3
UCSORGRIGHT
350
3C9
  3
UCSORGTOP
350
3C6
  3
UCSORTHOREF
350
3C3
  3
UCSORTHOVIEW
350
3C4
  3
VERSIONGUID
350
3B8
  0
DICTIONARY
  5
3A4
102
{ACAD_REACTORS
330
9
102
}
330
9
100
AcDbDictionary
  3
DIMASSOC
350
3A6
  3
HIDETEXT
350
3A5
  0
XRECORD
  5
3CC
102
{ACAD_REACTORS
330
3
102
}
330
3
100
AcDbXrecord
340
2
  0
SORTENTSTABLE
  5
4
102
{ACAD_REACTORS
330
3
102
}
330
3
100
AcDbSortentsTable
330
2
  0
XRECORD
  5
3CE
102
{ACAD_REACTORS
330
3CD
102
}
330
3CD
100
AcDbXrecord
340
E
  0
MLINESTYLE
  5
27
102
{ACAD_REACTORS
330
23
102
}
330
23
100
AcDbMlineStyle
  2
STANDARD
 70
     0
  3

 62
     0
 51
90.0
 52
90.0
 71
     2
 49
0.5
 62
   256
  6
BYLAYER
 49
-0.5
 62
   256
  6
BYLAYER
  0
ACDBPLACEHOLDER
  5
7
102
{ACAD_REACTORS
330
8
102
}
330
8
100
AcDbPlaceHolder
280
     0
  0
XRECORD
  5
3B6
102
{ACAD_REACTORS
330
3AC
102
}
330
3AC
100
AcDbXrecord
 90
        0
  0
XRECORD
  5
3B7
102
{ACAD_REACTORS
330
3AC
102
}
330
3AC
100
AcDbXrecord
  1
{9F95A62F-9263-11D5-B32D-9B41A974800C}
  0
XRECORD
  5
3AF
102
{ACAD_REACTORS
330
3AC
102
}
330
3AC
100
AcDbXrecord
  1

  0
XRECORD
  5
3B5
102
{ACAD_REACTORS
330
3AC
102
}
330
3AC
100
AcDbXrecord
 90
        0
  0
XRECORD
  5
3B1
102
{ACAD_REACTORS
330
3AC
102
}
330
3AC
100
AcDbXrecord
340
D
  0
XRECORD
  5
3B4
102
{ACAD_REACTORS
330
3AC
102
}
330
3AC
100
AcDbXrecord
 90
     2589
  0
XRECORD
  5
3B2
102
{ACAD_REACTORS
330
3AC
102
}
330
3AC
100
AcDbXrecord
340
24
  0
XRECORD
  5
3B3
102
{ACAD_REACTORS
330
3AC
102
}
330
3AC
100
AcDbXrecord
340
8
  0
XRECORD
  5
3B9
102
{ACAD_REACTORS
330
3AC
102
}
330
3AC
100
AcDbXrecord
 40
0.0
  0
XRECORD
  5
3BC
102
{ACAD_REACTORS
330
3AC
102
}
330
3AC
100
AcDbXrecord
340
0
  0
XRECORD
  5
3C2
102
{ACAD_REACTORS
330
3AC
102
}
330
3AC
100
AcDbXrecord
 10
0.0
 20
0.0
 30
0.0
  0
XRECORD
  5
3BE
102
{ACAD_REACTORS
330
3AC
102
}
330
3AC
100
AcDbXrecord
 10
0.0
 20
0.0
 30
0.0
  0
XRECORD
  5
3C1
102
{ACAD_REACTORS
330
3AC
102
}
330
3AC
100
AcDbXrecord
 10
0.0
 20
0.0
 30
0.0
  0
XRECORD
  5
3BF
102
{ACAD_REACTORS
330
3AC
102
}
330
3AC
100
AcDbXrecord
 10
0.0
 20
0.0
 30
0.0
  0
XRECORD
  5
3C0
102
{ACAD_REACTORS
330
3AC
102
}
330
3AC
100
AcDbXrecord
 10
0.0
 20
0.0
 30
0.0
  0
XRECORD
  5
3BD
102
{ACAD_REACTORS
330
3AC
102
}
330
3AC
100
AcDbXrecord
 10
0.0
 20
0.0
 30
0.0
  0
XRECORD
  5
3BA
102
{ACAD_REACTORS
330
3AC
102
}
330
3AC
100
AcDbXrecord
340
0
  0
XRECORD
  5
3BB
102
{ACAD_REACTORS
330
3AC
102
}
330
3AC
100
AcDbXrecord
 70
     0
  0
XRECORD
  5
3B0
102
{ACAD_REACTORS
330
3AC
102
}
330
3AC
100
AcDbXrecord
  1

  0
XRECORD
  5
3AD
102
{ACAD_REACTORS
330
3AC
102
}
330
3AC
100
AcDbXrecord
 90
        1
  0
XRECORD
  5
3AE
102
{ACAD_REACTORS
330
3AC
102
}
330
3AC
100
AcDbXrecord
 90
       70
  0
XRECORD
  5
3C5
102
{ACAD_REACTORS
330
3AC
102
}
330
3AC
100
AcDbXrecord
340
0
  0
XRECORD
  5
3CB
102
{ACAD_REACTORS
330
3AC
102
}
330
3AC
100
AcDbXrecord
 10
0.0
 20
0.0
 30
0.0
  0
XRECORD
  5
3C7
102
{ACAD_REACTORS
330
3AC
102
}
330
3AC
100
AcDbXrecord
 10
0.0
 20
0.0
 30
0.0
  0
XRECORD
  5
3CA
102
{ACAD_REACTORS
330
3AC
102
}
330
3AC
100
AcDbXrecord
 10
0.0
 20
0.0
 30
0.0
  0
XRECORD
  5
3C8
102
{ACAD_REACTORS
330
3AC
102
}
330
3AC
100
AcDbXrecord
 10
0.0
 20
0.0
 30
0.0
  0
XRECORD
  5
3C9
102
{ACAD_REACTORS
330
3AC
102
}
330
3AC
100
AcDbXrecord
 10
0.0
 20
0.0
 30
0.0
  0
XRECORD
  5
3C6
102
{ACAD_REACTORS
330
3AC
102
}
330
3AC
100
AcDbXrecord
 10
0.0
 20
0.0
 30
0.0
  0
XRECORD
  5
3C3
102
{ACAD_REACTORS
330
3AC
102
}
330
3AC
100
AcDbXrecord
340
0
  0
XRECORD
  5
3C4
102
{ACAD_REACTORS
330
3AC
102
}
330
3AC
100
AcDbXrecord
 70
     0
  0
XRECORD
  5
3B8
102
{ACAD_REACTORS
330
3AC
102
}
330
3AC
100
AcDbXrecord
  1
{FBE16191-8F13-4E7A-A4EB-21F513493D06}
  0
DICTIONARYVAR
  5
3A6
102
{ACAD_REACTORS
330
3A4
102
}
330
3A4
100
DictionaryVariables
280
     0
  1
1
  0
DICTIONARYVAR
  5
3A5
102
{ACAD_REACTORS
330
3A4
102
}
330
3A4
100
DictionaryVariables
280
     0
  1
1
  0
ENDSEC
  0
EOF
