  0
SECTION
  2
HEADER
  9
$ACADVER
  1
AC1015
  9
$ACADMAINTVER
 70
    20
  9
$DWGCODEPAGE
  3
ANSI_1252
  9
$INSBASE
 10
203958.0791877905
 20
66125.05280847392
 30
0.0
  9
$EXTMIN
 10
203957.9791877905
 20
66124.95280847391
 30
0.0
  9
$EXTMAX
 10
206058.1791877905
 20
67610.15280847392
 30
0.0
  9
$LIMMIN
 10
0.0
 20
0.0
  9
$LIMMAX
 10
12.0
 20
9.0
  9
$ORTHOMODE
 70
     0
  9
$REGENMODE
 70
     1
  9
$FILLMODE
 70
     1
  9
$QTEXTMODE
 70
     0
  9
$MIRRTEXT
 70
     1
  9
$LTSCALE
 40
2.0
  9
$ATTMODE
 70
     1
  9
$TEXTSIZE
 40
20.0
  9
$TRACEWID
 40
0.05
  9
$TEXTSTYLE
  7
PPP
  9
$CLAYER
  8
linea-spessa
  9
$CELTYPE
  6
BYLAYER
  9
$CECOLOR
 62
   256
  9
$CELTSCALE
 40
1.0
  9
$DISPSILH
 70
     0
  9
$DIMSCALE
 40
50.0
  9
$DIMASZ
 40
0.18
  9
$DIMEXO
 40
0.0625
  9
$DIMDLI
 40
0.38
  9
$DIMRND
 40
0.0
  9
$DIMDLE
 40
0.0
  9
$DIMEXE
 40
0.18
  9
$DIMTP
 40
0.0
  9
$DIMTM
 40
0.0
  9
$DIMTXT
 40
0.18
  9
$DIMCEN
 40
0.09
  9
$DIMTSZ
 40
0.0
  9
$DIMTOL
 70
     0
  9
$DIMLIM
 70
     0
  9
$DIMTIH
 70
     1
  9
$DIMTOH
 70
     1
  9
$DIMSE1
 70
     0
  9
$DIMSE2
 70
     0
  9
$DIMTAD
 70
     0
  9
$DIMZIN
 70
     0
  9
$DIMBLK
  1

  9
$DIMASO
 70
     1
  9
$DIMSHO
 70
     1
  9
$DIMPOST
  1

  9
$DIMAPOST
  1

  9
$DIMALT
 70
     0
  9
$DIMALTD
 70
     2
  9
$DIMALTF
 40
25.4
  9
$DIMLFAC
 40
1.0
  9
$DIMTOFL
 70
     0
  9
$DIMTVP
 40
0.0
  9
$DIMTIX
 70
     0
  9
$DIMSOXD
 70
     0
  9
$DIMSAH
 70
     0
  9
$DIMBLK1
  1

  9
$DIMBLK2
  1

  9
$DIMSTYLE
  2
STANDARD
  9
$DIMCLRD
 70
     0
  9
$DIMCLRE
 70
     0
  9
$DIMCLRT
 70
     0
  9
$DIMTFAC
 40
1.0
  9
$DIMGAP
 40
0.09
  9
$DIMJUST
 70
     0
  9
$DIMSD1
 70
     0
  9
$DIMSD2
 70
     0
  9
$DIMTOLJ
 70
     1
  9
$DIMTZIN
 70
     0
  9
$DIMALTZ
 70
     0
  9
$DIMALTTZ
 70
     0
  9
$DIMUPT
 70
     0
  9
$DIMDEC
 70
     0
  9
$DIMTDEC
 70
     0
  9
$DIMALTU
 70
     2
  9
$DIMALTTD
 70
     2
  9
$DIMTXSTY
  7
STANDARD
  9
$DIMAUNIT
 70
     0
  9
$DIMADEC
 70
     0
  9
$DIMALTRND
 40
0.0
  9
$DIMAZIN
 70
     0
  9
$DIMDSEP
 70
    46
  9
$DIMATFIT
 70
     3
  9
$DIMFRAC
 70
     0
  9
$DIMLDRBLK
  1

  9
$DIMLUNIT
 70
     2
  9
$DIMLWD
 70
    -2
  9
$DIMLWE
 70
    -2
  9
$DIMTMOVE
 70
     0
  9
$LUNITS
 70
     2
  9
$LUPREC
 70
     4
  9
$SKETCHINC
 40
0.1
  9
$FILLETRAD
 40
10.0
  9
$AUNITS
 70
     0
  9
$AUPREC
 70
     0
  9
$MENU
  1
.
  9
$ELEVATION
 40
0.0
  9
$PELEVATION
 40
0.0
  9
$THICKNESS
 40
0.0
  9
$LIMCHECK
 70
     0
  9
$CHAMFERA
 40
0.0
  9
$CHAMFERB
 40
0.0
  9
$CHAMFERC
 40
1.0
  9
$CHAMFERD
 40
0.0
  9
$SKPOLY
 70
     0
  9
$TDCREATE
 40
2451217.402450579
  9
$TDUCREATE
 40
2451217.319117245
  9
$TDUPDATE
 40
2454250.701055764
  9
$TDUUPDATE
 40
2454250.617722431
  9
$TDINDWG
 40
7.7457749537
  9
$TDUSRTIMER
 40
7.7457738657
  9
$USRTIMER
 70
     1
  9
$ANGBASE
 50
0.0
  9
$ANGDIR
 70
     0
  9
$PDMODE
 70
     0
  9
$PDSIZE
 40
0.0
  9
$PLINEWID
 40
0.0
  9
$SPLFRAME
 70
     0
  9
$SPLINETYPE
 70
     6
  9
$SPLINESEGS
 70
     8
  9
$HANDSEED
  5
12C
  9
$SURFTAB1
 70
     6
  9
$SURFTAB2
 70
     6
  9
$SURFTYPE
 70
     6
  9
$SURFU
 70
     6
  9
$SURFV
 70
     6
  9
$UCSBASE
  2

  9
$UCSNAME
  2

  9
$UCSORG
 10
0.0
 20
0.0
 30
0.0
  9
$UCSXDIR
 10
1.0
 20
0.0
 30
0.0
  9
$UCSYDIR
 10
0.0
 20
1.0
 30
0.0
  9
$UCSORTHOREF
  2

  9
$UCSORTHOVIEW
 70
     0
  9
$UCSORGTOP
 10
0.0
 20
0.0
 30
0.0
  9
$UCSORGBOTTOM
 10
0.0
 20
0.0
 30
0.0
  9
$UCSORGLEFT
 10
0.0
 20
0.0
 30
0.0
  9
$UCSORGRIGHT
 10
0.0
 20
0.0
 30
0.0
  9
$UCSORGFRONT
 10
0.0
 20
0.0
 30
0.0
  9
$UCSORGBACK
 10
0.0
 20
0.0
 30
0.0
  9
$PUCSBASE
  2

  9
$PUCSNAME
  2

  9
$PUCSORG
 10
0.0
 20
0.0
 30
0.0
  9
$PUCSXDIR
 10
1.0
 20
0.0
 30
0.0
  9
$PUCSYDIR
 10
0.0
 20
1.0
 30
0.0
  9
$PUCSORTHOREF
  2

  9
$PUCSORTHOVIEW
 70
     0
  9
$PUCSORGTOP
 10
0.0
 20
0.0
 30
0.0
  9
$PUCSORGBOTTOM
 10
0.0
 20
0.0
 30
0.0
  9
$PUCSORGLEFT
 10
0.0
 20
0.0
 30
0.0
  9
$PUCSORGRIGHT
 10
0.0
 20
0.0
 30
0.0
  9
$PUCSORGFRONT
 10
0.0
 20
0.0
 30
0.0
  9
$PUCSORGBACK
 10
0.0
 20
0.0
 30
0.0
  9
$USERI1
 70
     0
  9
$USERI2
 70
     0
  9
$USERI3
 70
     0
  9
$USERI4
 70
     0
  9
$USERI5
 70
     0
  9
$USERR1
 40
0.0
  9
$USERR2
 40
0.0
  9
$USERR3
 40
0.0
  9
$USERR4
 40
0.0
  9
$USERR5
 40
0.0
  9
$WORLDVIEW
 70
     1
  9
$SHADEDGE
 70
     3
  9
$SHADEDIF
 70
    70
  9
$TILEMODE
 70
     1
  9
$MAXACTVP
 70
    48
  9
$PINSBASE
 10
0.0
 20
0.0
 30
0.0
  9
$PLIMCHECK
 70
     0
  9
$PEXTMIN
 10
1.000000000000000E+20
 20
1.000000000000000E+20
 30
1.000000000000000E+20
  9
$PEXTMAX
 10
-1.000000000000000E+20
 20
-1.000000000000000E+20
 30
-1.000000000000000E+20
  9
$PLIMMIN
 10
-0.2500002402958907
 20
-0.2499999962453767
  9
$PLIMMAX
 10
10.74999951940821
 20
8.249999763458731
  9
$UNITMODE
 70
     0
  9
$VISRETAIN
 70
     1
  9
$PLINEGEN
 70
     0
  9
$PSLTSCALE
 70
     1
  9
$TREEDEPTH
 70
  3020
  9
$CMLSTYLE
  2
STANDARD
  9
$CMLJUST
 70
     0
  9
$CMLSCALE
 40
1.0
  9
$PROXYGRAPHICS
 70
     1
  9
$MEASUREMENT
 70
     0
  9
$CELWEIGHT
370
    -1
  9
$ENDCAPS
280
     0
  9
$JOINSTYLE
280
     0
  9
$LWDISPLAY
290
     0
  9
$INSUNITS
 70
     0
  9
$HYPERLINKBASE
  1

  9
$STYLESHEET
  1

  9
$XEDIT
290
     1
  9
$CEPSNTYPE
380
     0
  9
$PSTYLEMODE
290
     1
  9
$FINGERPRINTGUID
  2
{23FCF46C-6D8F-492A-A10E-4B51F4BC9870}
  9
$VERSIONGUID
  2
{2F20ADD8-5D4C-4BC0-B55D-AD517BB4D8EB}
  9
$EXTNAMES
290
     1
  9
$PSVPSCALE
 40
0.0
  9
$OLESTARTUP
290
     0
  0
ENDSEC
  0
SECTION
  2
CLASSES
  0
CLASS
  1
IMAGEDEF
  2
AcDbRasterImageDef
  3
ISM
 90
    32768
280
     0
281
     0
  0
CLASS
  1
ACDBDICTIONARYWDFLT
  2
AcDbDictionaryWithDefault
  3
ObjectDBX Classes
 90
        0
280
     0
281
     0
  0
CLASS
  1
ACDBPLACEHOLDER
  2
AcDbPlaceHolder
  3
ObjectDBX Classes
 90
        0
280
     0
281
     0
  0
CLASS
  1
LAYOUT
  2
AcDbLayout
  3
ObjectDBX Classes
 90
        0
280
     0
281
     0
  0
CLASS
  1
RASTERVARIABLES
  2
AcDbRasterVariables
  3
ISM
 90
    32768
280
     0
281
     0
  0
CLASS
  1
IMAGEDEF_REACTOR
  2
AcDbRasterImageDefReactor
  3
ISM
 90
    32769
280
     0
281
     0
  0
CLASS
  1
IMAGE
  2
AcDbRasterImage
  3
ISM
 90
    32895
280
     0
281
     1
  0
CLASS
  1
DICTIONARYVAR
  2
AcDbDictionaryVar
  3
ObjectDBX Classes
 90
        0
280
     0
281
     0
  0
CLASS
  1
SORTENTSTABLE
  2
AcDbSortentsTable
  3
ObjectDBX Classes
 90
        0
280
     0
281
     0
  0
CLASS
  1
PLOTSETTINGS
  2
AcDbPlotSettings
  3
ObjectDBX Classes
 90
    32768
280
     0
281
     0
  0
ENDSEC
  0
SECTION
  2
TABLES
  0
TABLE
  2
VPORT
  5
1B
330
0
100
AcDbSymbolTable
 70
     2
  0
VPORT
  5
126
330
1B
100
AcDbSymbolTableRecord
100
AcDbViewportTableRecord
  2
*Active
 70
     0
 10
0.0
 20
0.0
 11
1.0
 21
1.0
 12
205381.4806223289
 22
66731.53112825175
 13
0.0
 23
0.0
 14
0.5
 24
0.5
 15
0.5
 25
0.5
 16
0.0
 26
0.0
 36
1.0
 17
0.0
 27
0.0
 37
0.0
 40
2199.321354033255
 41
1.364625850340136
 42
50.0
 43
0.0
 44
0.0
 50
0.0
 51
0.0
 71
     0
 72
   100
 73
     1
 74
     3
 75
     0
 76
     0
 77
     0
 78
     0
281
     0
 65
     1
110
0.0
120
0.0
130
0.0
111
1.0
121
0.0
131
0.0
112
0.0
122
1.0
132
0.0
 79
     0
146
0.0
  0
ENDTAB
  0
TABLE
  2
LTYPE
  5
16
330
0
100
AcDbSymbolTable
 70
     1
  0
LTYPE
  5
17
330
16
100
AcDbSymbolTableRecord
100
AcDbLinetypeTableRecord
  2
BYBLOCK
 70
     0
  3

 72
    65
 73
     0
 40
0.0
  0
LTYPE
  5
18
330
16
100
AcDbSymbolTableRecord
100
AcDbLinetypeTableRecord
  2
BYLAYER
 70
     0
  3

 72
    65
 73
     0
 40
0.0
  0
LTYPE
  5
A
330
16
100
AcDbSymbolTableRecord
100
AcDbLinetypeTableRecord
  2
CONTINUOUS
 70
     0
  3
Solid line
 72
    65
 73
     0
 40
0.0
  0
ENDTAB
  0
TABLE
  2
LAYER
  5
12
330
0
100
AcDbSymbolTable
 70
     6
  0
LAYER
  5
6
330
12
100
AcDbSymbolTableRecord
100
AcDbLayerTableRecord
  2
0
 70
     0
 62
   174
  6
CONTINUOUS
370
    -3
390
7
  0
LAYER
  5
40
330
12
100
AcDbSymbolTableRecord
100
AcDbLayerTableRecord
  2
SIMB-RIELLO
 70
     0
 62
     1
  6
CONTINUOUS
370
    -3
390
7
  0
LAYER
  5
2F
330
12
100
AcDbSymbolTableRecord
100
AcDbLayerTableRecord
  2
cart
 70
     0
 62
   150
  6
CONTINUOUS
370
    -3
390
7
  0
LAYER
  5
27
330
12
100
AcDbSymbolTableRecord
100
AcDbLayerTableRecord
  2
linea-spessa
 70
     0
 62
     1
  6
CONTINUOUS
370
    -3
390
7
  0
LAYER
  5
4B
330
12
100
AcDbSymbolTableRecord
100
AcDbLayerTableRecord
  2
linea-fine
 70
     0
 62
     3
  6
CONTINUOUS
370
    -3
390
7
  0
LAYER
  5
2B
330
12
100
AcDbSymbolTableRecord
100
AcDbLayerTableRecord
  2
LAYER1
 70
     0
 62
     7
  6
CONTINUOUS
370
    -3
390
7
  0
ENDTAB
  0
TABLE
  2
STYLE
  5
13
330
0
100
AcDbSymbolTable
 70
     3
  0
STYLE
  5
14
330
13
100
AcDbSymbolTableRecord
100
AcDbTextStyleTableRecord
  2
STANDARD
 70
     0
 40
0.0
 41
1.0
 50
0.0
 71
     0
 42
10.0
  3
romans.shx
  4

  0
STYLE
  5
32
330
13
100
AcDbSymbolTableRecord
100
AcDbTextStyleTableRecord
  2
SIMPLEX_INCLINATO
 70
     0
 40
2.0
 41
1.0
 50
15.0
 71
     0
 42
89.95247795954492
  3
simplex.shx
  4

  0
STYLE
  5
28
330
13
100
AcDbSymbolTableRecord
100
AcDbTextStyleTableRecord
  2
PPP
 70
     0
 40
0.0
 41
1.0
 50
0.0
 71
     0
 42
20.0
  3
swissl.ttf
  4

1001
ACAD
1000
Swis721 Lt BT
1071
       34
  0
ENDTAB
  0
TABLE
  2
VIEW
  5
19
330
0
100
AcDbSymbolTable
 70
     0
  0
ENDTAB
  0
TABLE
  2
UCS
  5
1A
330
0
100
AcDbSymbolTable
 70
     0
  0
ENDTAB
  0
TABLE
  2
APPID
  5
1D
330
0
100
AcDbSymbolTable
 70
     2
  0
APPID
  5
1E
330
1D
100
AcDbSymbolTableRecord
100
AcDbRegAppTableRecord
  2
ACAD
 70
     0
  0
APPID
  5
120
330
1D
100
AcDbSymbolTableRecord
100
AcDbRegAppTableRecord
  2
DCO15
 70
     0
  0
ENDTAB
  0
TABLE
  2
DIMSTYLE
  5
1F
330
0
100
AcDbSymbolTable
 70
     1
100
AcDbDimStyleTable
 71
     1
340
20
  0
DIMSTYLE
105
20
330
1F
100
AcDbSymbolTableRecord
100
AcDbDimStyleTableRecord
  2
STANDARD
 70
     0
 40
50.0
271
     0
272
     0
340
14
  0
ENDTAB
  0
TABLE
  2
BLOCK_RECORD
  5
1
330
0
100
AcDbSymbolTable
 70
     4
  0
BLOCK_RECORD
  5
2
102
{ACAD_XDICTIONARY
360
3
102
}
330
1
100
AcDbSymbolTableRecord
100
AcDbBlockTableRecord
  2
*MODEL_SPACE
340
C
  0
BLOCK_RECORD
  5
E
330
1
100
AcDbSymbolTableRecord
100
AcDbBlockTableRecord
  2
*PAPER_SPACE
340
11
  0
BLOCK_RECORD
  5
2C
330
1
100
AcDbSymbolTableRecord
100
AcDbBlockTableRecord
  2
cart-r-a5
340
0
102
{BLKREFS
331
2A
102
}
  0
BLOCK_RECORD
  5
4C
330
1
100
AcDbSymbolTableRecord
100
AcDbBlockTableRecord
  2
rl341mz1
340
0
310
2800000020000000200000000100080000000000000400000000000000000000000000000000000000000000000080000080000000808000800000008000800080800000C0C0C000C0DCC000F0CAA6000020400000206000002080000020A0000020C0000020E00000400000004020000040400000406000004080000040A0
310
000040C0000040E00000600000006020000060400000606000006080000060A0000060C0000060E00000800000008020000080400000806000008080000080A0000080C0000080E00000A0000000A0200000A0400000A0600000A0800000A0A00000A0C00000A0E00000C0000000C0200000C0400000C0600000C0800000C0
310
A00000C0C00000C0E00000E0000000E0200000E0400000E0600000E0800000E0A00000E0C00000E0E00040000000400020004000400040006000400080004000A0004000C0004000E00040200000402020004020400040206000402080004020A0004020C0004020E000404000004040200040404000404060004040800040
310
40A0004040C0004040E00040600000406020004060400040606000406080004060A0004060C0004060E00040800000408020004080400040806000408080004080A0004080C0004080E00040A0000040A0200040A0400040A0600040A0800040A0A00040A0C00040A0E00040C0000040C0200040C0400040C0600040C08000
310
40C0A00040C0C00040C0E00040E0000040E0200040E0400040E0600040E0800040E0A00040E0C00040E0E00080000000800020008000400080006000800080008000A0008000C0008000E00080200000802020008020400080206000802080008020A0008020C0008020E00080400000804020008040400080406000804080
310
008040A0008040C0008040E00080600000806020008060400080606000806080008060A0008060C0008060E00080800000808020008080400080806000808080008080A0008080C0008080E00080A0000080A0200080A0400080A0600080A0800080A0A00080A0C00080A0E00080C0000080C0200080C0400080C0600080C0
310
800080C0A00080C0C00080C0E00080E0000080E0200080E0400080E0600080E0800080E0A00080E0C00080E0E000C0000000C0002000C0004000C0006000C0008000C000A000C000C000C000E000C0200000C0202000C0204000C0206000C0208000C020A000C020C000C020E000C0400000C0402000C0404000C0406000C0
310
408000C040A000C040C000C040E000C0600000C0602000C0604000C0606000C0608000C060A000C060C000C060E000C0800000C0802000C0804000C0806000C0808000C080A000C080C000C080E000C0A00000C0A02000C0A04000C0A06000C0A08000C0A0A000C0A0C000C0A0E000C0C00000C0C02000C0C04000C0C06000
310
C0C08000C0C0A000F0FBFF00A4A0A000808080000000FF0000FF000000FFFF00FF000000FF00FF00FFFF0000FFFFFF0000000000000000000000000000000000000000000000000000000000000000000000000000000000000000000000000000000000000000000000000000000000000000000000000000000000000000
310
00000000000000000000000000000000000000000000000000000000000000000000000000000000000000000000000000000000000000000000000000000000000000000000000000000000000000000000000000000000000000000000000000000000000000000000000000000000000000000000000000000000000000
310
000000000000000000000000000000000000000000000000000000000000000000000000000000000000000000000000000000000000000000000000000000000000000000000000000000000000000000000000000000F9F9F9F9F9F9F9F9F9000000000000000000000000000000000000000000F9F9000000000000F9F9
310
F9000000000000000000000000000000000000000000F900000000000000F9F9F90000000000000000000000000000000000000000F9F900000000000000F9F9F90000000000000000000000000000000000000000F900F9F9F900000000F9F9F900000000000000000000000000000000000000F9F900000000F9F9F900F9
310
F9F900000000000000000000000000000000000000F900F9F9000000F90000F9F9F900000000F90000000000000000000000000000F90000F900F9F9000000F9F9F9F9F9F9F9F9F9F9F9F9F9F9F9FAFAFAFA00000000F9F9F9F90000000000F9F9F9F9F90000F9F90000000000F9000000FAFA000000F9F900000000000000
310
F9F9F900F9F9F9F9F90000000000F9000000FAFA00000000F900000000000000F9F9F9F9F90000F9F90000000000F9000000FAFA00000000F900000000000000F9F9F9F9F9F9F9F9F90000000000F9000000FAFA0000000000F9000000000000F9F9F900F9F9F9F9F9F9F9F9F9F9F9FAFAFAFAFA000000000000F9F9F9F9F9
310
F9F900F9F9F9F900F900000000000000000000000000000000000000000000000000000000000000000000000000000000000000000000000000000000000000000000000000000000000000000000000000000000000000000000000000000000000000000000000000000000000000000000000000000000000000000000
310
00000000000000000000000000000000000000000000000000000000000000000000000000000000000000000000000000000000000000000000000000000000000000000000000000000000000000000000000000000000000000000000000000000000000000000000000000000000000000000000000000000000000000
310
0000000000000000000000000000000000000000000000000000000000000000000000000000000000000000000000000000000000000000
102
{BLKREFS
331
4A
102
}
  0
BLOCK_RECORD
  5
A9
330
1
100
AcDbSymbolTableRecord
100
AcDbBlockTableRecord
  2
rl341mz2
340
0
310
2800000020000000200000000100080000000000000400000000000000000000000000000000000000000000000080000080000000808000800000008000800080800000C0C0C000C0DCC000F0CAA6000020400000206000002080000020A0000020C0000020E00000400000004020000040400000406000004080000040A0
310
000040C0000040E00000600000006020000060400000606000006080000060A0000060C0000060E00000800000008020000080400000806000008080000080A0000080C0000080E00000A0000000A0200000A0400000A0600000A0800000A0A00000A0C00000A0E00000C0000000C0200000C0400000C0600000C0800000C0
310
A00000C0C00000C0E00000E0000000E0200000E0400000E0600000E0800000E0A00000E0C00000E0E00040000000400020004000400040006000400080004000A0004000C0004000E00040200000402020004020400040206000402080004020A0004020C0004020E000404000004040200040404000404060004040800040
310
40A0004040C0004040E00040600000406020004060400040606000406080004060A0004060C0004060E00040800000408020004080400040806000408080004080A0004080C0004080E00040A0000040A0200040A0400040A0600040A0800040A0A00040A0C00040A0E00040C0000040C0200040C0400040C0600040C08000
310
40C0A00040C0C00040C0E00040E0000040E0200040E0400040E0600040E0800040E0A00040E0C00040E0E00080000000800020008000400080006000800080008000A0008000C0008000E00080200000802020008020400080206000802080008020A0008020C0008020E00080400000804020008040400080406000804080
310
008040A0008040C0008040E00080600000806020008060400080606000806080008060A0008060C0008060E00080800000808020008080400080806000808080008080A0008080C0008080E00080A0000080A0200080A0400080A0600080A0800080A0A00080A0C00080A0E00080C0000080C0200080C0400080C0600080C0
310
800080C0A00080C0C00080C0E00080E0000080E0200080E0400080E0600080E0800080E0A00080E0C00080E0E000C0000000C0002000C0004000C0006000C0008000C000A000C000C000C000E000C0200000C0202000C0204000C0206000C0208000C020A000C020C000C020E000C0400000C0402000C0404000C0406000C0
310
408000C040A000C040C000C040E000C0600000C0602000C0604000C0606000C0608000C060A000C060C000C060E000C0800000C0802000C0804000C0806000C0808000C080A000C080C000C080E000C0A00000C0A02000C0A04000C0A06000C0A08000C0A0A000C0A0C000C0A0E000C0C00000C0C02000C0C04000C0C06000
310
C0C08000C0C0A000F0FBFF00A4A0A000808080000000FF0000FF000000FFFF00FF000000FF00FF00FFFF0000FFFFFF00000000000000000000000000000000000000000000000000000000000000000000000000000000000000000000000000000000000000000000000000000000000000F9F9F9F9F9F9F9F9F9F9F9F9F9
310
F9F9F9F9F9F9F9F9F9F9F9F9F9F9F9000000F900000000000000000000000000000000000000000000000000000000F90000F900000000000000000000000000000000000000000000000000000000F90000F900000000000000000000000000000000000000000000000000000000F90000F9000000000000000000000000
310
00000000000000000000000000000000F90000F900000000000000000000000000000000000000000000000000000000F90000F900000000000000000000000000000000000000000000000000000000F90000F9F9F9F9F9F9F9F9F9F9F9F9F9F9F9F9F9F9F9F9F9F9F9F9F9F9F9F9F9F90000F90000000000000000000000
310
0000000000000000000000000000000000F90000F900000000000000000000000000000000000000000000000000000000F90000F9F9F9F9F9F9F9F9F9F900000000000000000000F9F9F9F9F9F9F9F9F9F90000F90000F9F9F9F9F9F9F9F9000000F9F9000000F9F9F9F9F9F9F9F90000F90000F9000000000000000000F9
310
000000F9F9000000F9000000F90000F90000F90000F9000000000000000000F90000000000000000F9000000F90000F90000F90000F90000F9F9F9F9F9F9F9F90000000000000000F9F9F9F9F9F9F9F90000F90000F9000000000000000000F90000000000000000F9000000000000000000F90000F9F9F9F9F9F9F9F9F9F9
310
F90000000000000000F9F9F9F9F9F9F9F9F9F9F90000F90000000000000000000000F9F9F9F9F9F90000000000000000000000F90000F900000000000000000000F9000000000000F900000000000000000000F90000F9F9F9F9F9F9F9F9F9F9F90000000000000000F9F9F9F9F9F9F9F9F9F9F90000F90000000000000000
310
0000000000F9F900000000000000000000000000F90000F9000000000000000000000000F9F9F9F9000000000000000000000000F90000F9F9F9F9F9F9F9F9F9F900000000F9F900000000000000000000000000F90000F900F9F9F9F9F9F9F900F9000000000000000000000000000000000000F90000F900F900F9F9F900
310
F900F9000000000000000000000000000000000000F9000000F9F9F9F9F9F9F9F9F9F9F9F9F9F9F9F9F9F9F9F9F9F9F9F9F9F9F9F9000000000000000000000000F9F9F9F9F9F900F9F9F9F9F9F9000000000000000000000000000000000000000000000000F9F9F900000000000000000000000000000000000000000000
310
0000000000000000000000000000000000000000000000000000000000000000000000000000000000000000000000000000000000000000
102
{BLKREFS
331
A8
102
}
  0
BLOCK_RECORD
  5
EA
330
1
100
AcDbSymbolTableRecord
100
AcDbBlockTableRecord
  2
rl341mz3
340
0
310
2800000020000000200000000100080000000000000400000000000000000000000000000000000000000000000080000080000000808000800000008000800080800000C0C0C000C0DCC000F0CAA6000020400000206000002080000020A0000020C0000020E00000400000004020000040400000406000004080000040A0
310
000040C0000040E00000600000006020000060400000606000006080000060A0000060C0000060E00000800000008020000080400000806000008080000080A0000080C0000080E00000A0000000A0200000A0400000A0600000A0800000A0A00000A0C00000A0E00000C0000000C0200000C0400000C0600000C0800000C0
310
A00000C0C00000C0E00000E0000000E0200000E0400000E0600000E0800000E0A00000E0C00000E0E00040000000400020004000400040006000400080004000A0004000C0004000E00040200000402020004020400040206000402080004020A0004020C0004020E000404000004040200040404000404060004040800040
310
40A0004040C0004040E00040600000406020004060400040606000406080004060A0004060C0004060E00040800000408020004080400040806000408080004080A0004080C0004080E00040A0000040A0200040A0400040A0600040A0800040A0A00040A0C00040A0E00040C0000040C0200040C0400040C0600040C08000
310
40C0A00040C0C00040C0E00040E0000040E0200040E0400040E0600040E0800040E0A00040E0C00040E0E00080000000800020008000400080006000800080008000A0008000C0008000E00080200000802020008020400080206000802080008020A0008020C0008020E00080400000804020008040400080406000804080
310
008040A0008040C0008040E00080600000806020008060400080606000806080008060A0008060C0008060E00080800000808020008080400080806000808080008080A0008080C0008080E00080A0000080A0200080A0400080A0600080A0800080A0A00080A0C00080A0E00080C0000080C0200080C0400080C0600080C0
310
800080C0A00080C0C00080C0E00080E0000080E0200080E0400080E0600080E0800080E0A00080E0C00080E0E000C0000000C0002000C0004000C0006000C0008000C000A000C000C000C000E000C0200000C0202000C0204000C0206000C0208000C020A000C020C000C020E000C0400000C0402000C0404000C0406000C0
310
408000C040A000C040C000C040E000C0600000C0602000C0604000C0606000C0608000C060A000C060C000C060E000C0800000C0802000C0804000C0806000C0808000C080A000C080C000C080E000C0A00000C0A02000C0A04000C0A06000C0A08000C0A0A000C0A0C000C0A0E000C0C00000C0C02000C0C04000C0C06000
310
C0C08000C0C0A000F0FBFF00A4A0A000808080000000FF0000FF000000FFFF00FF000000FF00FF00FFFF0000FFFFFF0000000000000000000000000000000000000000000000000000000000000000000000000000000000000000000000000000000000000000000000000000000000000000000000000000000000000000
310
00000000000000000000000000000000000000000000000000000000000000000000000000000000000000000000000000000000000000000000000000000000000000000000000000000000000000000000000000000000000000000000000000000000000000000000000000000000000000000000000000000000000000
310
0000000000000000000000000000000000000000000000000000000000000000000000000000000000000000000000000000000000F9F9F9F9F9F9F9F9F9F9F90000000000000000000000000000000000000000F9F900000000000000F900F900000000000000000000000000000000000000F9F90000000000000000F900
310
F900000000000000000000000000000000000000F9F90000000000000000F900F900000000000000000000000000000000000000F9F90000000000000000F900F900000000F90000000000000000000000000000F9F90000000000000000F900F9F9F9F9F9F9F9F9F9F9F9F9F9FAFAFAFAFA0000F9F90000000000000000F9
310
00F9F9F90000F9F90000000000F9000000FAFA0000F9000000000000000000F900F900F90000F9F90000000000F9000000FAFA0000F9000000000000000000F900F9F9F90000F9F90000000000F9000000FAFA0000F9F90000000000000000F900F9F9F9F9F9F9F90000000000F9000000FAFA0000F9F9F9F9F9F9F9F90000
310
F900F900000000F9F9F9F9F9F9F9F9FAFAFAFA000000F9F90000000000F90000F900F900000000F90000000000000000000000000000F9F90000000000F90000F900F900000000000000000000000000000000000000F9F90000000000F90000F900F90000000000000000000000000000000000000000F9F900000000F900
310
00F900F9000000000000000000000000000000000000000000F9F9F9F9F9F9F9F9F9F9F900000000000000000000000000000000000000000000000000000000000000000000000000000000000000000000000000000000000000000000000000000000000000000000000000000000000000000000000000000000000000
310
00000000000000000000000000000000000000000000000000000000000000000000000000000000000000000000000000000000000000000000000000000000000000000000000000000000000000000000000000000000000000000000000000000000000000000000000000000000000000000000000000000000000000
310
0000000000000000000000000000000000000000000000000000000000000000000000000000000000000000000000000000000000000000
102
{BLKREFS
331
E9
102
}
  0
ENDTAB
  0
ENDSEC
  0
SECTION
  2
BLOCKS
  0
BLOCK
  5
5
330
2
100
AcDbEntity
  8
0
100
AcDbBlockBegin
  2
*MODEL_SPACE
 70
     2
 10
0.0
 20
0.0
 30
0.0
  3
*MODEL_SPACE
  1

  0
ENDBLK
  5
B
330
2
100
AcDbEntity
  8
0
100
AcDbBlockEnd
  0
BLOCK
  5
F
330
E
100
AcDbEntity
 67
     1
  8
0
100
AcDbBlockBegin
  2
*PAPER_SPACE
 70
     0
 10
0.0
 20
0.0
 30
0.0
  3
*PAPER_SPACE
  1

  0
ENDBLK
  5
10
330
E
100
AcDbEntity
 67
     1
  8
0
100
AcDbBlockEnd
  0
BLOCK
  5
2D
330
2C
100
AcDbEntity
  8
0
100
AcDbBlockBegin
  2
cart-r-a5
 70
     2
 10
0.0
 20
0.0
 30
0.0
  3
cart-r-a5
  1

  0
LINE
  5
2E
330
2C
100
AcDbEntity
  8
cart
100
AcDbLine
 10
835.5070225047892
 20
197.3143560261851
 30
0.0
 11
2060.0
 21
197.3143560261851
 31
0.0
  0
LINE
  5
30
330
2C
100
AcDbEntity
  8
cart
100
AcDbLine
 10
835.5070225047892
 20
142.0216267714603
 30
0.0
 11
2060.0
 21
142.0216267714604
 31
0.0
  0
TEXT
  5
31
330
2C
100
AcDbEntity
  8
cart
 62
     8
100
AcDbText
 10
884.7422773817967
 20
157.1679913988227
 30
0.0
 40
25.0
  1
codice n.
  7
SIMPLEX_INCLINATO
 72
     1
 11
968.0756107151301
 21
169.6679913988227
 31
0.0
100
AcDbText
 73
     2
  0
TEXT
  5
33
330
2C
100
AcDbEntity
  8
cart
 62
     8
100
AcDbText
 10
1240.938630529566
 20
157.1679913988227
 30
0.0
 40
25.0
  1
denominazione commerciale
  7
SIMPLEX_INCLINATO
 72
     1
 11
1505.22434481528
 21
169.6679913988227
 31
0.0
100
AcDbText
 73
     2
  0
TEXT
  5
34
330
2C
100
AcDbEntity
  8
cart
 62
     8
100
AcDbText
 10
1940.854626304926
 20
157.1679913988227
 30
0.0
 40
25.0
  1
scala
  7
SIMPLEX_INCLINATO
 72
     1
 11
1984.902245352545
 21
169.6679913988227
 31
0.0
100
AcDbText
 73
     2
  0
LINE
  5
35
330
2C
100
AcDbEntity
  8
cart
100
AcDbLine
 10
354.2497517629745
 20
1287.685643973816
 30
0.0
 11
354.2497517629745
 21
1445.0
 31
0.0
  0
LINE
  5
36
330
2C
100
AcDbEntity
  8
cart
100
AcDbLine
 10
40.0
 20
1287.685643973816
 30
0.0
 11
354.2497517629745
 21
1287.685643973816
 31
0.0
  0
LWPOLYLINE
  5
37
330
2C
100
AcDbEntity
  8
cart
100
AcDbPolyline
 90
        4
 70
     1
 43
5.0
 10
2060.0
 20
40.0
 10
2060.0
 20
1445.0
 10
40.0
 20
1445.0
 10
40.0
 20
40.00000000000091
  0
LWPOLYLINE
  5
38
330
2C
100
AcDbEntity
  8
cart
100
AcDbPolyline
 90
        5
 70
     1
 43
0.2
 10
2100.0
 20
0.0
 10
2100.0
 20
0.0
 10
2100.0
 20
1485.0
 10
0.0
 20
1485.0
 10
0.0
 20
0.0
  0
LINE
  5
39
330
2C
100
AcDbEntity
  8
cart
100
AcDbLine
 10
835.5070225047892
 20
40.00000000000068
 30
0.0
 11
835.5070225047892
 21
197.3143560261851
 31
0.0
  0
LINE
  5
3A
330
2C
100
AcDbEntity
  8
cart
100
AcDbLine
 10
1100.644198925471
 20
40.00000000000068
 30
0.0
 11
1100.644198925471
 21
197.3143560261851
 31
0.0
  0
LINE
  5
3B
330
2C
100
AcDbEntity
  8
cart
100
AcDbLine
 10
1909.80449070509
 20
40.00000000000011
 30
0.0
 11
1909.80449070509
 21
197.3143560261851
 31
0.0
  0
TEXT
  5
3C
330
2C
100
AcDbEntity
  8
cart
 62
     7
100
AcDbText
 10
1967.759388209688
 20
78.51081338573028
 30
0.0
 40
25.0
  1
1:1
 41
0.8
 51
15.0
  7
SIMPLEX_INCLINATO
 72
     1
 11
1984.902245352545
 21
91.01081338573028
 31
0.0
100
AcDbText
 73
     2
  0
ATTDEF
  5
3D
330
2C
100
AcDbEntity
  8
cart
 62
     7
100
AcDbText
 10
1505.224344815279
 20
81.01081338573044
 30
0.0
 40
20.0
  1

 51
15.0
  7
SIMPLEX_INCLINATO
 72
     1
 11
1505.224344815279
 21
91.01081338573044
 31
0.0
100
AcDbAttributeDefinition
  3
denominazione
  2
DENOMINAZIONE
 70
     0
 74
     2
  0
ATTDEF
  5
3E
330
2C
100
AcDbEntity
  8
cart
 62
     7
100
AcDbText
 10
968.0756107151299
 20
78.51081338573052
 30
0.0
 40
25.0
  1

 51
15.0
  7
SIMPLEX_INCLINATO
 72
     1
 11
968.0756107151299
 21
91.01081338573051
 31
0.0
100
AcDbAttributeDefinition
  3
codice
  2
COD
 70
     0
 74
     2
  0
HATCH
  5
3F
330
2C
100
AcDbEntity
  8
SIMB-RIELLO
100
AcDbHatch
 10
0.0
 20
0.0
 30
0.0
210
0.0
220
0.0
230
1.0
  2
SOLID
 70
     1
 71
     0
 91
        1
 92
        7
 72
     0
 73
     1
 93
        3
 10
142.9478404672923
 20
1383.25627958519
 10
102.4563532618978
 20
1383.256279585192
 10
142.9478404672923
 20
1342.764792379798
 97
        0
 75
     0
 76
     1
 47
0.008020346143228
 98
        1
 10
132.5393285438647
 20
1369.580977708611
  0
HATCH
  5
41
330
2C
100
AcDbEntity
  8
SIMB-RIELLO
100
AcDbHatch
 10
0.0
 20
0.0
 30
0.0
210
0.0
220
0.0
230
1.0
  2
SOLID
 70
     1
 71
     0
 91
        7
 92
        7
 72
     1
 73
     1
 93
       12
 10
179.3601278732088
 20
1377.612483905122
 42
-0.4196614604291923
 10
184.4005880045179
 20
1373.365809373688
 42
0.0
 10
184.4005880045179
 20
1367.625080647511
 42
-0.2974902999392861
 10
179.3601278732088
 20
1362.825938864905
 42
0.0
 10
190.1370761365293
 20
1340.829624085705
 42
0.0
 10
200.5244212129937
 20
1340.829624085706
 42
0.0
 10
189.7474729496749
 20
1362.436819499612
 42
0.3186908506564043
 10
195.7202497417707
 20
1373.850994417918
 42
0.375587932791305
 10
182.6061711412594
 20
1385.451256376083
 42
0.0
 10
168.2351241447539
 20
1385.451256376083
 42
0.0
 10
168.2351241447539
 20
1340.829624085706
 42
0.0
 10
179.3601278732071
 20
1340.829624085706
 42
0.0
 97
        0
 92
        7
 72
     0
 73
     1
 93
        4
 10
211.6258485627011
 20
1385.451256376083
 10
200.5244212129972
 20
1385.451256376083
 10
200.5244212129954
 20
1340.829624085706
 10
211.6258485627011
 20
1340.829624085707
 97
        0
 92
        7
 72
     0
 73
     1
 93
       12
 10
227.4666170099177
 20
1359.3238622875
 10
237.3346368379142
 20
1359.323862287499
 10
237.3346368379142
 20
1367.495373865303
 10
227.4666170099126
 20
1367.495373865304
 10
227.4666170099126
 20
1377.223363885609
 10
238.1136910796712
 20
1377.22336388561
 10
238.1136910796678
 20
1385.451256376083
 10
216.9493853137882
 20
1385.451256376083
 10
216.9493853137882
 20
1340.829624085705
 10
239.2822724423049
 20
1340.829624085706
 10
239.2822724423049
 20
1349.984991632488
 10
227.4666170099143
 20
1349.984991632489
 97
        0
 92
        7
 72
     0
 73
     1
 93
        6
 10
259.8362633155752
 20
1350.244404869793
 10
252.4352485864702
 20
1350.244404869793
 10
252.4352485864684
 20
1385.451256376083
 10
241.6583321430911
 20
1385.451256376083
 10
241.6583321430894
 20
1340.829624085706
 10
259.8362633155736
 20
1340.829624085706
 97
        0
 92
        7
 72
     0
 73
     1
 93
        6
 10
280.0916730336584
 20
1350.374111324891
 10
272.6906577369706
 20
1350.374111324891
 10
272.6906577369706
 20
1385.451256376083
 10
262.0435836672154
 20
1385.451256376083
 10
262.0435836672154
 20
1340.829624085706
 10
280.0916730336567
 20
1340.829624085706
 97
        0
 92
        7
 72
     1
 73
     1
 93
        8
 10
308.371192621777
 20
1352.19000300469
 42
0.0
 10
308.371192621777
 20
1374.758940257422
 42
0.2577399339603656
 10
299.4562060291335
 20
1385.451256376083
 42
0.0
 10
289.0066596262951
 20
1385.451256376083
 42
0.2577399339598106
 10
280.0916730336567
 20
1374.758940257451
 42
0.0
 10
280.0916730336584
 20
1352.190003004697
 42
0.3015054834347943
 10
291.2443774919384
 20
1340.829624085706
 42
0.0
 10
297.218488163497
 20
1340.829624085706
 42
0.3015054834346608
 97
        0
 92
       22
 72
     1
 73
     1
 93
        4
 10
290.7387471034118
 20
1353.616774992115
 42
0.0
 10
290.7387471034118
 20
1373.591581507294
 42
-0.9070612246060122
 10
297.7241185520219
 20
1373.591581507322
 42
0.0
 10
297.7241185520219
 20
1353.616774992087
 42
-0.9070612246023385
 97
        0
 75
     0
 76
     1
 47
0.0163601992298996
 98
       12
 10
178.2775151671833
 20
1370.300625145347
 10
206.8195369805792
 20
1359.608563972256
 10
223.0726323255103
 20
1350.10450963252
 10
244.0827316843947
 20
1348.124498352629
 10
280.9495099546305
 20
1346.14448707274
 10
175.5025961590424
 20
1365.944600525855
 10
206.8195369805792
 20
1354.856536965942
 10
219.5048798826272
 20
1352.480523299231
 10
245.6683996890464
 20
1347.728496292917
 10
268.6605834861657
 20
1350.10450963252
 10
295.6169378624926
 20
1345.352482626206
 10
295.6169378624926
 20
1345.352482626206
  0
HATCH
  5
42
330
2C
100
AcDbEntity
  8
SIMB-RIELLO
 62
     7
100
AcDbHatch
 10
0.0
 20
0.0
 30
0.0
210
0.0
220
0.0
230
1.0
  2
SOLID
 70
     1
 71
     0
 91
        2
 92
       16
 93
        1
 72
     2
 10
122.7020968645959
 20
1363.010535982494
 40
28.63180518326331
 50
0.0
 51
360.0
 73
     1
 97
        0
 92
        1
 93
        1
 72
     2
 10
122.7020968645959
 20
1363.010535982494
 40
30.96831521445249
 50
0.0
 51
360.0
 73
     1
 97
        0
 75
     0
 76
     1
 98
        1
 10
-10199.26938929792
 20
-2819.586441311654
  0
HATCH
  5
43
330
2C
100
AcDbEntity
  8
SIMB-RIELLO
 62
     7
100
AcDbHatch
 10
0.0
 20
0.0
 30
0.0
210
0.0
220
0.0
230
1.0
  2
SOLID
 70
     1
 71
     0
 91
        2
 92
       16
 93
        1
 72
     2
 10
122.7020968645959
 20
1363.010535982494
 40
32.11707291624153
 50
0.0
 51
360.0
 73
     1
 97
        0
 92
        1
 93
        1
 72
     2
 10
122.7020968645959
 20
1363.010535982494
 40
33.78219760665426
 50
0.0
 51
360.0
 73
     1
 97
        0
 75
     0
 76
     1
 98
        1
 10
-10199.26938929792
 20
-2819.586441311654
  0
HATCH
  5
44
330
2C
100
AcDbEntity
  8
SIMB-RIELLO
 62
     7
100
AcDbHatch
 10
0.0
 20
0.0
 30
0.0
210
0.0
220
0.0
230
1.0
  2
SOLID
 70
     1
 71
     0
 91
        2
 92
       16
 93
        1
 72
     2
 10
122.7020968645959
 20
1363.010535982494
 40
35.29055345577882
 50
0.0
 51
360.0
 73
     1
 97
        0
 92
        1
 93
        1
 72
     2
 10
122.7020968645959
 20
1363.010535982494
 40
36.48518414786596
 50
0.0
 51
360.0
 73
     1
 97
        0
 75
     0
 76
     1
 98
        1
 10
-10199.26938929792
 20
-2819.586441311654
  0
HATCH
  5
45
330
2C
100
AcDbEntity
  8
SIMB-RIELLO
 62
     7
100
AcDbHatch
 10
0.0
 20
0.0
 30
0.0
210
0.0
220
0.0
230
1.0
  2
SOLID
 70
     1
 71
     0
 91
        2
 92
        1
 93
        1
 72
     2
 10
122.7020968645959
 20
1363.010535982494
 40
39.25215794502383
 50
0.0
 51
360.0
 73
     1
 97
        0
 92
       16
 93
        1
 72
     2
 10
122.7020968645959
 20
1363.010535982494
 40
38.5909683013861
 50
0.0
 51
360.0
 73
     1
 97
        0
 75
     0
 76
     1
 98
        1
 10
-10199.26938929792
 20
-2819.586441311654
  0
ENDBLK
  5
46
330
2C
100
AcDbEntity
  8
0
100
AcDbBlockEnd
  0
BLOCK
  5
4D
330
4C
100
AcDbEntity
  8
0
100
AcDbBlockBegin
  2
rl341mz1
 70
     0
 10
0.0
 20
0.0
 30
0.0
  3
rl341mz1
  1

  0
LINE
  5
4E
330
4C
100
AcDbEntity
  8
linea-spessa
100
AcDbLine
 10
-208.1869369482738
 20
89.77169290054007
 30
0.0
 11
-391.4284018072649
 21
89.77169290054007
 31
0.0
  0
ARC
  5
4F
330
4C
100
AcDbEntity
  8
linea-spessa
100
AcDbCircle
 10
-383.4118245641002
 20
12.46329938930285
 30
0.0
 40
77.72292594842065
100
AcDbArc
 50
95.92018847077794
 51
154.6628429839105
  0
ARC
  5
50
330
4C
100
AcDbEntity
  8
linea-spessa
100
AcDbCircle
 10
-120.5443662981852
 20
-154.8226111765107
 30
0.0
 40
388.8237684109863
100
AcDbArc
 50
148.9504884644692
 51
158.5971159685361
  0
ARC
  5
51
330
4C
100
AcDbEntity
  8
linea-spessa
100
AcDbCircle
 10
-355.4495067136595
 20
-144.4124239496304
 30
0.0
 40
151.1514879137882
100
AcDbArc
 50
201.9802965116405
 51
252.8939527472235
  0
ARC
  5
52
330
4C
100
AcDbEntity
  8
linea-spessa
100
AcDbCircle
 10
-304.7819838442665
 20
-18.25672707735794
 30
0.0
 40
286.8530988748095
100
AcDbArc
 50
250.6326180444885
 51
268.4144709518757
  0
LINE
  5
53
330
4C
100
AcDbEntity
  8
linea-spessa
100
AcDbLine
 10
-312.718971162918
 20
-304.9999999999855
 30
0.0
 11
-208.1869369482738
 21
-304.9999999999855
 31
0.0
  0
LINE
  5
54
330
4C
100
AcDbEntity
  8
linea-spessa
100
AcDbLine
 10
-208.1869369482738
 20
89.77169290054007
 30
0.0
 11
-208.1869369482738
 21
-304.9999999999855
 31
0.0
  0
LINE
  5
55
330
4C
100
AcDbEntity
  8
linea-spessa
100
AcDbLine
 10
-208.1869369482738
 20
85.72124078628258
 30
0.0
 11
-138.0
 21
85.72124078628258
 31
0.0
  0
LINE
  5
56
330
4C
100
AcDbEntity
  8
linea-spessa
100
AcDbLine
 10
-208.1869369482738
 20
-300.9495478857425
 30
0.0
 11
-138.0
 21
-300.9495478857425
 31
0.0
  0
LINE
  5
57
330
4C
100
AcDbEntity
  8
linea-spessa
100
AcDbLine
 10
-138.0
 20
85.72124078628258
 30
0.0
 11
-138.0
 21
-300.9495478857425
 31
0.0
  0
LINE
  5
58
330
4C
100
AcDbEntity
  8
linea-spessa
100
AcDbLine
 10
-138.0
 20
85.72124078628258
 30
0.0
 11
-138.0
 21
117.0000000000145
 31
0.0
  0
LINE
  5
59
330
4C
100
AcDbEntity
  8
linea-spessa
100
AcDbLine
 10
-138.0
 20
117.0000000000145
 30
0.0
 11
-98.3591633196047
 21
117.0000000000145
 31
0.0
  0
LINE
  5
5A
330
4C
100
AcDbEntity
  8
linea-spessa
100
AcDbLine
 10
-98.3591633196047
 20
117.0000000000145
 30
0.0
 11
-98.3591633196047
 21
75.91041355216294
 31
0.0
  0
LINE
  5
5B
330
4C
100
AcDbEntity
  8
linea-spessa
100
AcDbLine
 10
-98.3591633196047
 20
75.91041355216294
 30
0.0
 11
-88.99401939709788
 21
66.54526962967065
 31
0.0
  0
LINE
  5
5C
330
4C
100
AcDbEntity
  8
linea-spessa
100
AcDbLine
 10
-88.99401939709788
 20
66.54526962967065
 30
0.0
 11
-13.0105659510009
 21
66.54526962967065
 31
0.0
  0
LINE
  5
5D
330
4C
100
AcDbEntity
  8
linea-spessa
100
AcDbLine
 10
-13.01056595097179
 20
-102.4365887077729
 30
0.0
 11
-13.0105659510009
 21
102.4365887077874
 31
0.0
  0
LINE
  5
5E
330
4C
100
AcDbEntity
  8
linea-spessa
100
AcDbLine
 10
-13.0105659510009
 20
102.4365887077874
 30
0.0
 11
0.0
 21
102.4365887077874
 31
0.0
  0
LINE
  5
5F
330
4C
100
AcDbEntity
  8
linea-spessa
100
AcDbLine
 10
0.0
 20
102.4365887077874
 30
0.0
 11
0.0
 21
-102.4365887077729
 31
0.0
  0
LINE
  5
60
330
4C
100
AcDbEntity
  8
linea-spessa
100
AcDbLine
 10
0.0
 20
74.86773178758449
 30
0.0
 11
21.32236252393341
 21
74.86773178758449
 31
0.0
  0
LINE
  5
61
330
4C
100
AcDbEntity
  8
linea-spessa
100
AcDbLine
 10
21.32236252393341
 20
74.86773178758449
 30
0.0
 11
21.32236252381699
 21
-74.86773178756994
 31
0.0
  0
LINE
  5
62
330
4C
100
AcDbEntity
  8
linea-spessa
100
AcDbLine
 10
-138.0
 20
-66.00789285950305
 30
0.0
 11
-13.0105659510009
 21
-66.00789285950305
 31
0.0
  0
LINE
  5
63
330
4C
100
AcDbEntity
  8
linea-spessa
100
AcDbLine
 10
0.0
 20
-74.86773178756994
 30
0.0
 11
21.32236252393341
 21
-74.86773178756994
 31
0.0
  0
LINE
  5
64
330
4C
100
AcDbEntity
  8
linea-spessa
100
AcDbLine
 10
21.32236252393341
 20
70.00000000001455
 30
0.0
 11
209.0311638246931
 21
70.00000000001455
 31
0.0
  0
LINE
  5
65
330
4C
100
AcDbEntity
  8
linea-spessa
100
AcDbLine
 10
209.0311638246931
 20
70.00000000001455
 30
0.0
 11
216.0
 21
63.03116382470761
 31
0.0
  0
LINE
  5
66
330
4C
100
AcDbEntity
  8
linea-spessa
100
AcDbLine
 10
216.0
 20
63.03116382470761
 30
0.0
 11
215.9999999999709
 21
-63.03116382464941
 31
0.0
  0
LINE
  5
67
330
4C
100
AcDbEntity
  8
linea-spessa
100
AcDbLine
 10
21.32236252393341
 20
-69.99999999998545
 30
0.0
 11
209.0311638246931
 21
-69.99999999998545
 31
0.0
  0
LINE
  5
68
330
4C
100
AcDbEntity
  8
linea-spessa
100
AcDbLine
 10
209.0311638246931
 20
-69.99999999998545
 30
0.0
 11
216.0
 21
-63.03116382467852
 31
0.0
  0
LINE
  5
69
330
4C
100
AcDbEntity
  8
linea-spessa
100
AcDbLine
 10
209.0311638246931
 20
70.00000000001455
 30
0.0
 11
209.0311638246931
 21
-69.99999999998545
 31
0.0
  0
LINE
  5
6A
330
4C
100
AcDbEntity
  8
linea-spessa
100
AcDbLine
 10
-98.3591633196047
 20
96.45520677608146
 30
0.0
 11
-70.54160495192627
 21
96.45520677608146
 31
0.0
  0
LINE
  5
6B
330
4C
100
AcDbEntity
  8
linea-spessa
100
AcDbLine
 10
-70.54160495192627
 20
96.45520677608146
 30
0.0
 11
-70.54160495192627
 21
66.54526962967065
 31
0.0
  0
CIRCLE
  5
6C
330
4C
100
AcDbEntity
  8
linea-spessa
100
AcDbCircle
 10
-26.07706963259261
 20
43.630828339883
 30
0.0
 40
6.345976199346478
  0
LINE
  5
6D
330
4C
100
AcDbEntity
  8
linea-spessa
100
AcDbLine
 10
-13.0105659510009
 20
30.41060268925503
 30
0.0
 11
-138.0
 21
30.41060268926958
 31
0.0
  0
LINE
  5
6E
330
4C
100
AcDbEntity
  8
linea-spessa
100
AcDbLine
 10
-13.0105659510009
 20
-24.86681741428038
 30
0.0
 11
-99.62372283803416
 21
-24.86681741428038
 31
0.0
  0
LINE
  5
6F
330
4C
100
AcDbEntity
  8
linea-spessa
100
AcDbLine
 10
-99.62372283800505
 20
6.02350558474427
 30
0.0
 11
-99.62372283803416
 21
-39.49907567699847
 31
0.0
  0
LINE
  5
70
330
4C
100
AcDbEntity
  8
linea-spessa
100
AcDbLine
 10
-99.62372283803416
 20
-39.49907567699847
 30
0.0
 11
-138.0
 21
-39.49907567699847
 31
0.0
  0
LINE
  5
71
330
4C
100
AcDbEntity
  8
linea-spessa
100
AcDbLine
 10
-99.62372283800505
 20
6.02350558474427
 30
0.0
 11
-138.0
 21
6.02350558474427
 31
0.0
  0
CIRCLE
  5
72
330
4C
100
AcDbEntity
  8
linea-spessa
100
AcDbCircle
 10
-162.8984663661977
 20
43.78781014801643
 30
0.0
 40
8.513450277177616
  0
CIRCLE
  5
73
330
4C
100
AcDbEntity
  8
linea-spessa
100
AcDbCircle
 10
-162.8984663661977
 20
43.78781014801643
 30
0.0
 40
13.890479036225
  0
CIRCLE
  5
74
330
4C
100
AcDbEntity
  8
linea-spessa
100
AcDbCircle
 10
-162.8984663661977
 20
4.357248167390935
 30
0.0
 40
8.513450277177616
  0
CIRCLE
  5
75
330
4C
100
AcDbEntity
  8
linea-spessa
100
AcDbCircle
 10
-162.8984663661977
 20
4.357248167390935
 30
0.0
 40
13.890479036225
  0
LINE
  5
76
330
4C
100
AcDbEntity
  8
linea-spessa
100
AcDbLine
 10
-208.1869369482738
 20
-15.5263998304872
 30
0.0
 11
-144.4476478042197
 21
-15.52639983047265
 31
0.0
  0
LINE
  5
77
330
4C
100
AcDbEntity
  8
linea-spessa
100
AcDbLine
 10
-140.8076478042348
 20
-19.16639983047207
 30
0.0
 11
-140.8076478042348
 21
-272.7767705925362
 31
0.0
  0
LINE
  5
78
330
4C
100
AcDbEntity
  8
linea-spessa
100
AcDbLine
 10
-144.4476478042197
 20
-276.4167705925356
 30
0.0
 11
-208.1869369482738
 21
-276.4167705925211
 31
0.0
  0
ARC
  5
79
330
4C
100
AcDbEntity
  8
linea-spessa
100
AcDbCircle
 10
-144.4476478042197
 20
-272.7767705925362
 30
0.0
 40
3.64
100
AcDbArc
 50
270.0
 51
0.0
  0
ARC
  5
7A
330
4C
100
AcDbEntity
  8
linea-spessa
100
AcDbCircle
 10
-144.4476478042197
 20
-19.16639983047207
 30
0.0
 40
3.64
100
AcDbArc
 50
0.0
 51
90.0
  0
LWPOLYLINE
  5
7B
330
4C
100
AcDbEntity
  8
linea-spessa
100
AcDbPolyline
 90
        4
 70
     1
 43
0.0
 10
-150.2244438114576
 20
-267.872245418228
 10
-174.4679479929036
 20
-267.872245418228
 10
-174.4679479929036
 20
-200.0295834880817
 10
-150.2244438114576
 20
-200.0295834880817
  0
LWPOLYLINE
  5
7C
330
4C
100
AcDbEntity
  8
linea-spessa
100
AcDbPolyline
 90
        4
 70
     1
 43
0.0
 10
-150.2244438114576
 20
-195.2654802870238
 10
-174.4679479929036
 20
-195.2654802870238
 10
-174.4679479929036
 20
-138.4174384410435
 10
-150.2244438114576
 20
-138.4174384410435
  0
LWPOLYLINE
  5
7D
330
4C
100
AcDbEntity
  8
linea-spessa
100
AcDbPolyline
 90
        4
 70
     1
 43
0.0
 10
-150.2244438114576
 20
-133.6533352400001
 10
-174.4679479929036
 20
-133.6533352400001
 10
-174.4679479929036
 20
-93.58118378756627
 10
-150.2244438114576
 20
-93.58118378756627
  0
CIRCLE
  5
7E
330
4C
100
AcDbEntity
  8
linea-spessa
100
AcDbCircle
 10
-184.5083121454809
 20
-260.4410588012251
 30
0.0
 40
5.999866137734498
  0
LINE
  5
7F
330
4C
100
AcDbEntity
  8
linea-spessa
100
AcDbLine
 10
-174.4679479929036
 20
-218.6421074593381
 30
0.0
 11
-189.862365630659
 21
-218.6421074593381
 31
0.0
  0
LINE
  5
80
330
4C
100
AcDbEntity
  8
linea-spessa
100
AcDbLine
 10
-193.5023656306439
 20
-222.2821074593376
 30
0.0
 11
-193.5023656306439
 21
-236.5929995923798
 31
0.0
  0
LINE
  5
81
330
4C
100
AcDbEntity
  8
linea-spessa
100
AcDbLine
 10
-189.862365630659
 20
-240.2329995923792
 30
0.0
 11
-174.4679479929036
 21
-240.2329995923792
 31
0.0
  0
ARC
  5
82
330
4C
100
AcDbEntity
  8
linea-spessa
100
AcDbCircle
 10
-189.862365630659
 20
-236.5929995923798
 30
0.0
 40
3.64
100
AcDbArc
 50
180.0
 51
270.0
  0
ARC
  5
83
330
4C
100
AcDbEntity
  8
linea-spessa
100
AcDbCircle
 10
-189.862365630659
 20
-222.2821074593376
 30
0.0
 40
3.64
100
AcDbArc
 50
90.0
 51
180.0
  0
LINE
  5
84
330
4C
100
AcDbEntity
  8
linea-spessa
100
AcDbLine
 10
-174.4679479929036
 20
-156.0287345831311
 30
0.0
 11
-189.862365630659
 21
-156.0287345831311
 31
0.0
  0
LINE
  5
85
330
4C
100
AcDbEntity
  8
linea-spessa
100
AcDbLine
 10
-193.5023656306439
 20
-159.6687345831306
 30
0.0
 11
-193.5023656306439
 21
-173.9796267161873
 31
0.0
  0
LINE
  5
86
330
4C
100
AcDbEntity
  8
linea-spessa
100
AcDbLine
 10
-189.862365630659
 20
-177.6196267161867
 30
0.0
 11
-174.4679479929036
 21
-177.6196267161867
 31
0.0
  0
ARC
  5
87
330
4C
100
AcDbEntity
  8
linea-spessa
100
AcDbCircle
 10
-189.862365630659
 20
-173.9796267161873
 30
0.0
 40
3.64
100
AcDbArc
 50
180.0
 51
270.0
  0
ARC
  5
88
330
4C
100
AcDbEntity
  8
linea-spessa
100
AcDbCircle
 10
-189.862365630659
 20
-159.6687345831306
 30
0.0
 40
3.64
100
AcDbArc
 50
90.0
 51
180.0
  0
LINE
  5
89
330
4C
100
AcDbEntity
  8
linea-spessa
100
AcDbLine
 10
-174.4679479929036
 20
-103.7077159037144
 30
0.0
 11
-189.862365630659
 21
-103.7077159037144
 31
0.0
  0
LINE
  5
8A
330
4C
100
AcDbEntity
  8
linea-spessa
100
AcDbLine
 10
-193.5023656306439
 20
-107.3477159037138
 30
0.0
 11
-193.5023656306439
 21
-121.658608036756
 31
0.0
  0
LINE
  5
8B
330
4C
100
AcDbEntity
  8
linea-spessa
100
AcDbLine
 10
-189.862365630659
 20
-125.2986080367554
 30
0.0
 11
-174.4679479929036
 21
-125.2986080367554
 31
0.0
  0
ARC
  5
8C
330
4C
100
AcDbEntity
  8
linea-spessa
100
AcDbCircle
 10
-189.862365630659
 20
-121.658608036756
 30
0.0
 40
3.64
100
AcDbArc
 50
180.0
 51
270.0
  0
ARC
  5
8D
330
4C
100
AcDbEntity
  8
linea-spessa
100
AcDbCircle
 10
-189.862365630659
 20
-107.3477159037138
 30
0.0
 40
3.64
100
AcDbArc
 50
90.0
 51
180.0
  0
LWPOLYLINE
  5
8E
330
4C
100
AcDbEntity
  8
linea-spessa
100
AcDbPolyline
 90
        4
 70
     1
 43
0.0
 10
-143.7806006385653
 20
-41.36437316851515
 10
-175.1208605215943
 20
-41.36437316851515
 10
-175.1208605215943
 20
-18.99125086526328
 10
-143.7806006385653
 20
-18.99125086526328
  0
LWPOLYLINE
  5
8F
330
4C
100
AcDbEntity
  8
linea-spessa
100
AcDbPolyline
 90
        4
 70
     1
 43
0.0
 10
-150.2244438114576
 20
-91.00169943516084
 10
-174.4679479929036
 20
-91.00169943516084
 10
-174.4679479929036
 20
-50.92954798272694
 10
-150.2244438114576
 20
-50.92954798272694
  0
LINE
  5
90
330
4C
100
AcDbEntity
  8
linea-spessa
100
AcDbLine
 10
-174.4679479929036
 20
-61.0560800988751
 30
0.0
 11
-189.862365630659
 21
-61.0560800988751
 31
0.0
  0
LINE
  5
91
330
4C
100
AcDbEntity
  8
linea-spessa
100
AcDbLine
 10
-193.5023656306439
 20
-64.69608009887451
 30
0.0
 11
-193.5023656306439
 21
-79.00697223191674
 31
0.0
  0
LINE
  5
92
330
4C
100
AcDbEntity
  8
linea-spessa
100
AcDbLine
 10
-189.862365630659
 20
-82.64697223191616
 30
0.0
 11
-174.4679479929036
 21
-82.64697223191616
 31
0.0
  0
ARC
  5
93
330
4C
100
AcDbEntity
  8
linea-spessa
100
AcDbCircle
 10
-189.862365630659
 20
-79.00697223191674
 30
0.0
 40
3.64
100
AcDbArc
 50
180.0
 51
270.0
  0
ARC
  5
94
330
4C
100
AcDbEntity
  8
linea-spessa
100
AcDbCircle
 10
-189.862365630659
 20
-64.69608009887451
 30
0.0
 40
3.64
100
AcDbArc
 50
90.0
 51
180.0
  0
ARC
  5
95
330
4C
100
AcDbEntity
  8
linea-spessa
100
AcDbCircle
 10
-849.5223932946974
 20
-976.6035433497309
 30
0.0
 40
1031.178684073673
100
AcDbArc
 50
57.04745896108792
 51
69.15304876323722
  0
ARC
  5
96
330
4C
100
AcDbEntity
  8
linea-spessa
100
AcDbCircle
 10
-781.1043956985231
 20
1415.290672140545
 30
0.0
 40
1641.297286014612
100
AcDbArc
 50
280.0170833639478
 51
287.2553502688619
  0
ARC
  5
97
330
4C
100
AcDbEntity
  8
linea-spessa
100
AcDbCircle
 10
-300.9934950437455
 20
-130.4094411213154
 30
0.0
 40
22.75
100
AcDbArc
 50
287.2553502688619
 51
57.04745896108792
  0
LINE
  5
98
330
4C
100
AcDbEntity
  8
linea-spessa
100
AcDbLine
 10
-502.5336455207434
 20
-145.9686384540109
 30
0.0
 11
-475.5474982058513
 21
-145.9686384540109
 31
0.0
  0
LINE
  5
99
330
4C
100
AcDbEntity
  8
linea-spessa
100
AcDbLine
 10
-472.3301623514271
 20
-144.6359743084176
 30
0.0
 11
-422.4336301152361
 21
-94.73944207225576
 31
0.0
  0
LINE
  5
9A
330
4C
100
AcDbEntity
  8
linea-spessa
100
AcDbLine
 10
-422.8705532997264
 20
-87.92046695426689
 30
0.0
 11
-486.4295114699926
 21
-38.8538837547676
 31
0.0
  0
ARC
  5
9B
330
4C
100
AcDbEntity
  8
linea-spessa
100
AcDbCircle
 10
-475.5474982058513
 20
-141.4186384540226
 30
0.0
 40
4.549999999999999
100
AcDbArc
 50
270.0
 51
315.0
  0
ARC
  5
9C
330
4C
100
AcDbEntity
  8
linea-spessa
100
AcDbCircle
 10
-425.6509659696312
 20
-91.52210621786071
 30
0.0
 40
4.549999999999999
100
AcDbArc
 50
315.0
 51
52.33238613083104
  0
LINE
  5
9D
330
4C
100
AcDbEntity
  8
linea-fine
100
AcDbLine
 10
344.0311638247222
 20
70.00000000001455
 30
0.0
 11
351.0000000000291
 21
63.03116382470761
 31
0.0
  0
LINE
  5
9E
330
4C
100
AcDbEntity
  8
linea-fine
100
AcDbLine
 10
351.0000000000291
 20
63.03116382470761
 30
0.0
 11
351.0
 21
-63.03116382464941
 31
0.0
  0
LINE
  5
9F
330
4C
100
AcDbEntity
  8
linea-fine
100
AcDbLine
 10
344.0311638247222
 20
-69.99999999998545
 30
0.0
 11
351.0000000000291
 21
-63.03116382467852
 31
0.0
  0
LINE
  5
A0
330
4C
100
AcDbEntity
  8
linea-fine
100
AcDbLine
 10
344.0311638247222
 20
70.00000000001455
 30
0.0
 11
344.0311638247222
 21
-69.99999999998545
 31
0.0
  0
LINE
  5
A1
330
4C
100
AcDbEntity
  8
linea-fine
100
AcDbLine
 10
344.0311638247222
 20
70.00000000001455
 30
0.0
 11
209.0311638246931
 21
70.0
 31
0.0
  0
LINE
  5
A2
330
4C
100
AcDbEntity
  8
linea-fine
100
AcDbLine
 10
344.0311638247222
 20
-69.99999999998545
 30
0.0
 11
209.0311638246931
 21
-69.99999999998545
 31
0.0
  0
ARC
  5
A3
330
4C
100
AcDbEntity
  8
linea-spessa
100
AcDbCircle
 10
-120.5443662981852
 20
-154.8226111765107
 30
0.0
 40
383.8237684109862
100
AcDbArc
 50
158.5916834236436
 51
173.0288220434906
  0
ARC
  5
A4
330
4C
100
AcDbEntity
  8
linea-spessa
100
AcDbCircle
 10
-304.2426451267384
 20
-132.3610935263132
 30
0.0
 40
198.7573548732475
100
AcDbArc
 50
173.0288220434906
 51
193.2433369794703
  0
ARC
  5
A5
330
4C
100
AcDbEntity
  8
linea-spessa
100
AcDbCircle
 10
-355.4495067136595
 20
-144.4124239496304
 30
0.0
 40
146.1514879137882
100
AcDbArc
 50
193.2433369794703
 51
202.3927505506544
  0
LINE
  5
A6
330
4C
100
AcDbEntity
  8
linea-spessa
100
AcDbLine
 10
-13.0105659510009
 20
-102.4365887077729
 30
0.0
 11
0.0
 21
-102.4365887077729
 31
0.0
  0
ENDBLK
  5
A7
330
4C
100
AcDbEntity
  8
0
100
AcDbBlockEnd
  0
BLOCK
  5
AA
330
A9
100
AcDbEntity
  8
0
100
AcDbBlockBegin
  2
rl341mz2
 70
     0
 10
0.0
 20
0.0
 30
0.0
  3
rl341mz2
  1

  0
LINE
  5
AB
330
A9
100
AcDbEntity
  8
linea-spessa
100
AcDbLine
 10
202.8000000000174
 20
394.7716929005255
 30
0.0
 11
-202.8000000000174
 21
394.7716929005401
 31
0.0
  0
LINE
  5
AC
330
A9
100
AcDbEntity
  8
linea-spessa
100
AcDbLine
 10
-202.7999999999884
 20
0.0
 30
0.0
 11
202.8000000000174
 21
0.0000000000145519
 31
0.0
  0
LINE
  5
AD
330
A9
100
AcDbEntity
  8
linea-spessa
100
AcDbLine
 10
-220.9999999999709
 20
18.19999999999709
 30
0.0
 11
-221.0
 21
376.5716929005284
 31
0.0
  0
LINE
  5
AE
330
A9
100
AcDbEntity
  8
linea-spessa
100
AcDbLine
 10
221.0
 20
18.20000000002619
 30
0.0
 11
221.0000000000291
 21
376.5716929005284
 31
0.0
  0
ARC
  5
AF
330
A9
100
AcDbEntity
  8
linea-spessa
100
AcDbCircle
 10
-202.7999999999884
 20
18.19999999999709
 30
0.0
 40
18.2
100
AcDbArc
 50
180.0
 51
270.0
  0
ARC
  5
B0
330
A9
100
AcDbEntity
  8
linea-spessa
100
AcDbCircle
 10
-202.8000000000174
 20
376.5716929005284
 30
0.0
 40
18.2
100
AcDbArc
 50
90.0
 51
180.0
  0
ARC
  5
B1
330
A9
100
AcDbEntity
  8
linea-spessa
100
AcDbCircle
 10
202.8000000000174
 20
376.5716929005284
 30
0.0
 40
18.2
100
AcDbArc
 50
0.0
 51
90.0
  0
ARC
  5
B2
330
A9
100
AcDbEntity
  8
linea-spessa
100
AcDbCircle
 10
202.8000000000174
 20
18.20000000002619
 30
0.0
 40
18.2
100
AcDbArc
 50
270.0
 51
0.0
  0
LINE
  5
B3
330
A9
100
AcDbEntity
  8
linea-spessa
100
AcDbLine
 10
-4.796000182366697
 20
422.0000000000145
 30
0.0
 11
19.7960001823667
 21
422.0000000000145
 31
0.0
  0
LINE
  5
B4
330
A9
100
AcDbEntity
  8
linea-spessa
100
AcDbLine
 10
-4.796000182366697
 20
422.0000000000145
 30
0.0
 11
-16.61535624953103
 21
394.7716929005255
 31
0.0
  0
LINE
  5
B5
330
A9
100
AcDbEntity
  8
linea-spessa
100
AcDbLine
 10
19.7960001823667
 20
422.0000000000145
 30
0.0
 11
31.61535624953103
 21
394.7716929005401
 31
0.0
  0
LINE
  5
B6
330
A9
100
AcDbEntity
  8
linea-spessa
100
AcDbLine
 10
-84.24250190160819
 20
404.3735682398692
 30
0.0
 11
-88.41051657593926
 21
394.7716929005255
 31
0.0
  0
LINE
  5
B7
330
A9
100
AcDbEntity
  8
linea-spessa
100
AcDbLine
 10
99.24250190157909
 20
404.3735682398692
 30
0.0
 11
103.4105165759392
 21
394.7716929005255
 31
0.0
  0
LINE
  5
B8
330
A9
100
AcDbEntity
  8
linea-spessa
100
AcDbLine
 10
-84.24250190160819
 20
404.3735682398692
 30
0.0
 11
-12.44734157517086
 21
404.3735682398837
 31
0.0
  0
LINE
  5
B9
330
A9
100
AcDbEntity
  8
linea-spessa
100
AcDbLine
 10
27.44734157522908
 20
404.3735682398692
 30
0.0
 11
99.24250190157909
 21
404.3735682398692
 31
0.0
  0
LINE
  5
BA
330
A9
100
AcDbEntity
  8
linea-spessa
100
AcDbLine
 10
-209.2517010374868
 20
337.9941053472867
 30
0.0
 11
-95.45092309257597
 21
337.9941053472867
 31
0.0
  0
LINE
  5
BB
330
A9
100
AcDbEntity
  8
linea-spessa
100
AcDbLine
 10
-77.25092309256433
 20
356.1941053472838
 30
0.0
 11
-77.25092309256433
 21
388.302756547695
 31
0.0
  0
ARC
  5
BC
330
A9
100
AcDbEntity
  8
linea-spessa
100
AcDbCircle
 10
-95.45092309257597
 20
356.1941053472838
 30
0.0
 40
18.2
100
AcDbArc
 50
270.0
 51
0.0
  0
LWPOLYLINE
  5
BD
330
A9
100
AcDbEntity
  8
linea-spessa
100
AcDbPolyline
 90
        4
 70
     1
 43
0.0
 10
-190.8330569433165
 20
386.8339318821964
 10
-103.6654531332024
 20
386.8339318821964
 10
-103.6654531332024
 20
355.3957798770134
 10
-190.8330569433165
 20
355.3957798770134
  0
CIRCLE
  5
BE
330
A9
100
AcDbEntity
  8
linea-spessa
100
AcDbCircle
 10
-151.7050728328467
 20
371.1148558796121
 30
0.0
 40
15.71907600259787
  0
CIRCLE
  5
BF
330
A9
100
AcDbEntity
  8
linea-spessa
100
AcDbCircle
 10
-151.7050728328467
 20
371.1148558796121
 30
0.0
 40
9.584730568492959
  0
CIRCLE
  5
C0
330
A9
100
AcDbEntity
  8
linea-spessa
100
AcDbCircle
 10
0.0
 20
327.8189517325373
 30
0.0
 40
15.71907600259787
  0
CIRCLE
  5
C1
330
A9
100
AcDbEntity
  8
linea-spessa
100
AcDbCircle
 10
0.0
 20
327.8189517325373
 30
0.0
 40
9.584730568492959
  0
LINE
  5
C2
330
A9
100
AcDbEntity
  8
linea-spessa
100
AcDbLine
 10
-206.3906236645416
 20
104.0134300648642
 30
0.0
 11
206.3906236648618
 21
104.0134300648933
 31
0.0
  0
LINE
  5
C3
330
A9
100
AcDbEntity
  8
linea-spessa
100
AcDbLine
 10
-206.3906236645125
 20
292.0683773479832
 30
0.0
 11
-71.11136908683693
 21
292.0683773479832
 31
0.0
  0
ARC
  5
C4
330
A9
100
AcDbEntity
  8
linea-spessa
100
AcDbCircle
 10
-205.853128722054
 20
120.3553485452139
 30
0.0
 40
16.35075534741722
100
AcDbArc
 50
202.1239403681113
 51
268.1161885038071
  0
ARC
  5
C5
330
A9
100
AcDbEntity
  8
linea-spessa
100
AcDbCircle
 10
205.8531287221121
 20
120.3553485452139
 30
0.0
 40
16.35075534741722
100
AcDbArc
 50
271.883811496193
 51
337.8760596318888
  0
ARC
  5
C6
330
A9
100
AcDbEntity
  8
linea-spessa
100
AcDbCircle
 10
-205.853128722054
 20
275.7264588676481
 30
0.0
 40
16.35075534741722
100
AcDbArc
 50
91.88381149619294
 51
157.8760596318887
  0
ARC
  5
C7
330
A9
100
AcDbEntity
  8
linea-spessa
100
AcDbCircle
 10
205.8531287221413
 20
275.7264588676481
 30
0.0
 40
16.35075534741722
100
AcDbArc
 50
22.12394036811127
 51
88.11618850380703
  0
LINE
  5
C8
330
A9
100
AcDbEntity
  8
linea-spessa
100
AcDbLine
 10
35.28942071294296
 20
262.8132136046042
 30
0.0
 11
-35.28942071262282
 21
262.8132136045897
 31
0.0
  0
LINE
  5
C9
330
A9
100
AcDbEntity
  8
linea-spessa
100
AcDbLine
 10
-52.77832225785823
 20
275.975523385714
 30
0.0
 11
-53.62246754163061
 21
278.9060675668588
 31
0.0
  0
ARC
  5
CA
330
A9
100
AcDbEntity
  8
linea-spessa
100
AcDbCircle
 10
-35.28942071262282
 20
281.0132136045868
 30
0.0
 40
18.2
100
AcDbArc
 50
196.0690825620121
 51
270.0
  0
ARC
  5
CB
330
A9
100
AcDbEntity
  8
linea-spessa
100
AcDbCircle
 10
-71.11136908683693
 20
273.8683773479861
 30
0.0
 40
18.2
100
AcDbArc
 50
16.06908256201207
 51
90.0
  0
LINE
  5
CC
330
A9
100
AcDbEntity
  8
linea-spessa
100
AcDbLine
 10
52.77832225817838
 20
275.975523385714
 30
0.0
 11
53.62246754192165
 21
278.9060675668588
 31
0.0
  0
ARC
  5
CD
330
A9
100
AcDbEntity
  8
linea-spessa
100
AcDbCircle
 10
35.28942071294296
 20
281.0132136045868
 30
0.0
 40
18.2
100
AcDbArc
 50
270.0
 51
343.930917437988
  0
ARC
  5
CE
330
A9
100
AcDbEntity
  8
linea-spessa
100
AcDbCircle
 10
71.11136908715707
 20
273.8683773479861
 30
0.0
 40
18.2
100
AcDbArc
 50
90.0
 51
163.9309174379879
  0
LINE
  5
CF
330
A9
100
AcDbEntity
  8
linea-spessa
100
AcDbLine
 10
206.3906236648618
 20
292.0683773479832
 30
0.0
 11
71.11136908715707
 21
292.0683773479832
 31
0.0
  0
CIRCLE
  5
D0
330
A9
100
AcDbEntity
  8
linea-spessa
100
AcDbCircle
 10
0.0
 20
181.6265622092178
 30
0.0
 40
9.584730568492959
  0
LINE
  5
D1
330
A9
100
AcDbEntity
  8
linea-spessa
100
AcDbLine
 10
-205.3319333354011
 20
257.5395892447414
 30
0.0
 11
-79.91349900353816
 21
257.5395892447414
 31
0.0
  0
LINE
  5
D2
330
A9
100
AcDbEntity
  8
linea-spessa
100
AcDbLine
 10
-70.81349900353234
 20
248.4395892447501
 30
0.0
 11
-70.81349900353234
 21
168.0512633196631
 31
0.0
  0
LINE
  5
D3
330
A9
100
AcDbEntity
  8
linea-spessa
100
AcDbLine
 10
-79.91349900353816
 20
158.9512633196573
 30
0.0
 11
-205.3319333354011
 21
158.9512633196427
 31
0.0
  0
LINE
  5
D4
330
A9
100
AcDbEntity
  8
linea-spessa
100
AcDbLine
 10
205.3319333357503
 20
257.5395892447414
 30
0.0
 11
79.91349900391651
 21
257.5395892447559
 31
0.0
  0
LINE
  5
D5
330
A9
100
AcDbEntity
  8
linea-spessa
100
AcDbLine
 10
70.81349900391069
 20
248.4395892447647
 30
0.0
 11
70.81349900385248
 21
168.0512633196631
 31
0.0
  0
LINE
  5
D6
330
A9
100
AcDbEntity
  8
linea-spessa
100
AcDbLine
 10
79.91349900385831
 20
158.9512633196573
 30
0.0
 11
205.3319333357503
 21
158.9512633196427
 31
0.0
  0
ARC
  5
D7
330
A9
100
AcDbEntity
  8
linea-spessa
100
AcDbCircle
 10
-79.91349900353816
 20
168.0512633196631
 30
0.0
 40
9.099999999999999
100
AcDbArc
 50
270.0
 51
0.0
  0
ARC
  5
D8
330
A9
100
AcDbEntity
  8
linea-spessa
100
AcDbCircle
 10
-79.91349900353816
 20
248.4395892447501
 30
0.0
 40
9.099999999999999
100
AcDbArc
 50
0.0
 51
90.0
  0
ARC
  5
D9
330
A9
100
AcDbEntity
  8
linea-spessa
100
AcDbCircle
 10
79.91349900391651
 20
248.4395892447647
 30
0.0
 40
9.099999999999999
100
AcDbArc
 50
90.0
 51
180.0
  0
ARC
  5
DA
330
A9
100
AcDbEntity
  8
linea-spessa
100
AcDbCircle
 10
79.91349900385831
 20
168.0512633196631
 30
0.0
 40
9.099999999999999
100
AcDbArc
 50
180.0
 51
270.0
  0
LWPOLYLINE
  5
DB
330
A9
100
AcDbEntity
  8
linea-spessa
100
AcDbPolyline
 90
        4
 70
     1
 43
0.0
 10
134.3822580530541
 20
223.1828078886902
 10
186.0087992508779
 20
223.1828078886902
 10
186.0087992508779
 20
171.5562666908809
 10
134.3822580530541
 20
171.5562666908809
  0
LINE
  5
DC
330
A9
100
AcDbEntity
  8
linea-spessa
100
AcDbLine
 10
134.3822580530541
 20
223.1828078886902
 30
0.0
 11
84.12894772860454
 21
223.1828078886902
 31
0.0
  0
LINE
  5
DD
330
A9
100
AcDbEntity
  8
linea-spessa
100
AcDbLine
 10
77.7589477286092
 20
216.8128078886948
 30
0.0
 11
77.75894772866741
 21
177.9262666908907
 31
0.0
  0
LINE
  5
DE
330
A9
100
AcDbEntity
  8
linea-spessa
100
AcDbLine
 10
84.12894772866275
 20
171.5562666908954
 30
0.0
 11
134.3822580530541
 21
171.5562666908809
 31
0.0
  0
ARC
  5
DF
330
A9
100
AcDbEntity
  8
linea-spessa
100
AcDbCircle
 10
84.12894772860454
 20
216.8128078886948
 30
0.0
 40
6.37
100
AcDbArc
 50
90.0
 51
180.0
  0
ARC
  5
E0
330
A9
100
AcDbEntity
  8
linea-spessa
100
AcDbCircle
 10
84.12894772866275
 20
177.9262666908907
 30
0.0
 40
6.37
100
AcDbArc
 50
180.0
 51
270.0
  0
LINE
  5
E1
330
A9
100
AcDbEntity
  8
linea-spessa
100
AcDbLine
 10
-134.3822580529959
 20
223.1828078886902
 30
0.0
 11
-84.12894772863365
 21
223.1828078886902
 31
0.0
  0
LINE
  5
E2
330
A9
100
AcDbEntity
  8
linea-spessa
100
AcDbLine
 10
-77.7589477286092
 20
216.8128078886948
 30
0.0
 11
-77.75894772866741
 21
177.9262666908907
 31
0.0
  0
LINE
  5
E3
330
A9
100
AcDbEntity
  8
linea-spessa
100
AcDbLine
 10
-84.12894772866275
 20
171.5562666908954
 30
0.0
 11
-134.3822580529959
 21
171.5562666908809
 31
0.0
  0
ARC
  5
E4
330
A9
100
AcDbEntity
  8
linea-spessa
100
AcDbCircle
 10
-84.12894772863365
 20
216.8128078886948
 30
0.0
 40
6.37
100
AcDbArc
 50
0.0
 51
90.0
  0
ARC
  5
E5
330
A9
100
AcDbEntity
  8
linea-spessa
100
AcDbCircle
 10
-84.12894772866275
 20
177.9262666908907
 30
0.0
 40
6.37
100
AcDbArc
 50
270.0
 51
0.0
  0
LINE
  5
E6
330
A9
100
AcDbEntity
  8
linea-spessa
100
AcDbLine
 10
-134.3822580529959
 20
223.1828078886902
 30
0.0
 11
-186.0087992508197
 21
223.1828078886902
 31
0.0
  0
LINE
  5
E7
330
A9
100
AcDbEntity
  8
linea-spessa
100
AcDbLine
 10
-186.0087992508197
 20
171.5562666908809
 30
0.0
 11
-134.3822580529959
 21
171.5562666908809
 31
0.0
  0
ENDBLK
  5
E8
330
A9
100
AcDbEntity
  8
0
100
AcDbBlockEnd
  0
BLOCK
  5
EB
330
EA
100
AcDbEntity
  8
0
100
AcDbBlockBegin
  2
rl341mz3
 70
     0
 10
0.0
 20
0.0
 30
0.0
  3
rl341mz3
  1

  0
LINE
  5
EC
330
EA
100
AcDbEntity
  8
linea-spessa
100
AcDbLine
 10
-712.031163824693
 20
176.7386297393677
 30
0.0
 11
-712.0311638246639
 21
-161.7386297374032
 31
0.0
  0
LINE
  5
ED
330
EA
100
AcDbEntity
  8
linea-spessa
100
AcDbLine
 10
-347.031163824664
 20
224.4495478857861
 30
0.0
 11
-347.0311638246931
 21
-209.4495478857716
 31
0.0
  0
LINE
  5
EE
330
EA
100
AcDbEntity
  8
linea-spessa
100
AcDbLine
 10
-417.2181007729668
 20
228.5000000000145
 30
0.0
 11
-664.9046329170232
 21
228.5000000000145
 31
0.0
  0
LINE
  5
EF
330
EA
100
AcDbEntity
  8
linea-spessa
100
AcDbLine
 10
-417.2181007729668
 20
-213.5000000000145
 30
0.0
 11
-664.9046329169068
 21
-213.5000000000145
 31
0.0
  0
LINE
  5
F0
330
EA
100
AcDbEntity
  8
linea-spessa
100
AcDbLine
 10
-417.2181007729668
 20
228.5000000000145
 30
0.0
 11
-417.2181007729668
 21
-213.5000000000145
 31
0.0
  0
LINE
  5
F1
330
EA
100
AcDbEntity
  8
linea-spessa
100
AcDbLine
 10
-347.0311638246931
 20
224.4495478857716
 30
0.0
 11
-417.2181007729668
 21
224.4495478857716
 31
0.0
  0
LINE
  5
F2
330
EA
100
AcDbEntity
  8
linea-spessa
100
AcDbLine
 10
-347.0311638246931
 20
-209.4495478857716
 30
0.0
 11
-417.2181007729668
 21
-209.4495478857716
 31
0.0
  0
LINE
  5
F3
330
EA
100
AcDbEntity
  8
linea-spessa
100
AcDbLine
 10
-514.5128525156178
 20
214.3691055884265
 30
0.0
 11
-514.5128525155887
 21
109.7509230925789
 31
0.0
  0
LINE
  5
F4
330
EA
100
AcDbEntity
  8
linea-spessa
100
AcDbLine
 10
-539.5128525155887
 20
84.75092309257888
 30
0.0
 11
-658.0438697016216
 21
84.75092309257888
 31
0.0
  0
ARC
  5
F5
330
EA
100
AcDbEntity
  8
linea-spessa
100
AcDbCircle
 10
-539.5128525155887
 20
109.7509230925789
 30
0.0
 40
25.0
100
AcDbArc
 50
270.0
 51
0.0
  0
LINE
  5
F6
330
EA
100
AcDbEntity
  8
linea-spessa
100
AcDbLine
 10
-347.031163824664
 20
66.5452696296561
 30
0.0
 11
-222.041729775694
 21
66.5452696296561
 31
0.0
  0
LINE
  5
F7
330
EA
100
AcDbEntity
  8
linea-spessa
100
AcDbLine
 10
-222.0417297756358
 20
-102.4365887077874
 30
0.0
 11
-222.041729775694
 21
102.4365887077729
 31
0.0
  0
LINE
  5
F8
330
EA
100
AcDbEntity
  8
linea-spessa
100
AcDbLine
 10
-222.041729775694
 20
102.4365887077729
 30
0.0
 11
-209.0311638246931
 21
102.4365887077729
 31
0.0
  0
LINE
  5
F9
330
EA
100
AcDbEntity
  8
linea-spessa
100
AcDbLine
 10
-209.0311638246931
 20
102.4365887077729
 30
0.0
 11
-209.0311638246931
 21
-102.4365887077874
 31
0.0
  0
LINE
  5
FA
330
EA
100
AcDbEntity
  8
linea-spessa
100
AcDbLine
 10
-209.0311638246931
 20
74.86773178756994
 30
0.0
 11
-187.7088013007596
 21
74.86773178756994
 31
0.0
  0
LINE
  5
FB
330
EA
100
AcDbEntity
  8
linea-spessa
100
AcDbLine
 10
-187.7088013007596
 20
74.86773178756994
 30
0.0
 11
-187.7088013008761
 21
-74.86773178758449
 31
0.0
  0
LINE
  5
FC
330
EA
100
AcDbEntity
  8
linea-spessa
100
AcDbLine
 10
-347.0311638246931
 20
-66.00789285951759
 30
0.0
 11
-222.041729775694
 21
-66.00789285951759
 31
0.0
  0
LINE
  5
FD
330
EA
100
AcDbEntity
  8
linea-spessa
100
AcDbLine
 10
-209.0311638246931
 20
-74.86773178758449
 30
0.0
 11
-187.7088013007596
 21
-74.86773178758449
 31
0.0
  0
LINE
  5
FE
330
EA
100
AcDbEntity
  8
linea-spessa
100
AcDbLine
 10
-187.7088013007596
 20
70.0
 30
0.0
 11
0.0
 21
70.0
 31
0.0
  0
LINE
  5
FF
330
EA
100
AcDbEntity
  8
linea-spessa
100
AcDbLine
 10
0.0
 20
70.0
 30
0.0
 11
6.968836175306933
 21
63.03116382469307
 31
0.0
  0
LINE
  5
100
330
EA
100
AcDbEntity
  8
linea-spessa
100
AcDbLine
 10
6.968836175306933
 20
63.03116382469307
 30
0.0
 11
6.968836175277829
 21
-63.03116382466396
 31
0.0
  0
LINE
  5
101
330
EA
100
AcDbEntity
  8
linea-spessa
100
AcDbLine
 10
-187.7088013007596
 20
-70.0
 30
0.0
 11
0.0
 21
-70.0
 31
0.0
  0
LINE
  5
102
330
EA
100
AcDbEntity
  8
linea-spessa
100
AcDbLine
 10
0.0
 20
-70.0
 30
0.0
 11
6.968836175306933
 21
-63.03116382469307
 31
0.0
  0
LINE
  5
103
330
EA
100
AcDbEntity
  8
linea-spessa
100
AcDbLine
 10
0.0
 20
70.0
 30
0.0
 11
0.0
 21
-70.0
 31
0.0
  0
LINE
  5
104
330
EA
100
AcDbEntity
  8
linea-fine
100
AcDbLine
 10
135.0000000000291
 20
70.0
 30
0.0
 11
141.968836175336
 21
63.03116382469307
 31
0.0
  0
LINE
  5
105
330
EA
100
AcDbEntity
  8
linea-fine
100
AcDbLine
 10
141.968836175336
 20
63.03116382469307
 30
0.0
 11
141.9688361753069
 21
-63.03116382466396
 31
0.0
  0
LINE
  5
106
330
EA
100
AcDbEntity
  8
linea-fine
100
AcDbLine
 10
135.0000000000291
 20
-70.0
 30
0.0
 11
141.968836175336
 21
-63.03116382469307
 31
0.0
  0
LINE
  5
107
330
EA
100
AcDbEntity
  8
linea-fine
100
AcDbLine
 10
135.0000000000291
 20
70.0
 30
0.0
 11
135.0000000000291
 21
-70.0
 31
0.0
  0
LINE
  5
108
330
EA
100
AcDbEntity
  8
linea-fine
100
AcDbLine
 10
135.0000000000291
 20
70.0
 30
0.0
 11
0.0
 21
69.99999999998545
 31
0.0
  0
LINE
  5
109
330
EA
100
AcDbEntity
  8
linea-fine
100
AcDbLine
 10
135.0000000000291
 20
-70.0
 30
0.0
 11
0.0
 21
-70.0
 31
0.0
  0
LINE
  5
10A
330
EA
100
AcDbEntity
  8
linea-spessa
100
AcDbLine
 10
-307.3903271442396
 20
24.11535624951648
 30
0.0
 11
-347.031163824664
 21
24.11535624951648
 31
0.0
  0
LINE
  5
10B
330
EA
100
AcDbEntity
  8
linea-spessa
100
AcDbLine
 10
-307.3903271442687
 20
-24.11535624948738
 30
0.0
 11
-347.0311638246931
 21
-24.11535624948738
 31
0.0
  0
LINE
  5
10C
330
EA
100
AcDbEntity
  8
linea-spessa
100
AcDbLine
 10
-307.3903271442687
 20
24.11535624951648
 30
0.0
 11
-307.3903271442687
 21
-24.11535624948738
 31
0.0
  0
LINE
  5
10D
330
EA
100
AcDbEntity
  8
linea-spessa
100
AcDbLine
 10
-691.5850193035439
 20
176.7386297380872
 30
0.0
 11
-691.5850193036312
 21
78.61136908744811
 31
0.0
  0
ARC
  5
10E
330
EA
100
AcDbEntity
  8
linea-spessa
100
AcDbCircle
 10
-638.7074540040921
 20
175.9298889376805
 30
0.0
 40
52.88374961820568
100
AcDbArc
 50
96.24318359211349
 51
179.1237527350853
  0
ARC
  5
10F
330
EA
100
AcDbEntity
  8
linea-spessa
100
AcDbCircle
 10
-638.7074540040921
 20
-160.9298889376805
 30
0.0
 40
52.88374961820568
100
AcDbArc
 50
180.8762472649146
 51
263.7568164078865
  0
ARC
  5
110
330
EA
100
AcDbEntity
  8
linea-spessa
100
AcDbCircle
 10
-659.1535985252412
 20
175.9298889376805
 30
0.0
 40
52.88374961820568
100
AcDbArc
 50
96.24318359211349
 51
179.1237527350853
  0
ARC
  5
111
330
EA
100
AcDbEntity
  8
linea-spessa
100
AcDbCircle
 10
-659.153598525183
 20
-160.9298889376805
 30
0.0
 40
52.88374961820568
100
AcDbArc
 50
180.8762472649146
 51
263.7568164078865
  0
LINE
  5
112
330
EA
100
AcDbEntity
  8
linea-spessa
100
AcDbLine
 10
-222.041729775694
 20
-102.4365887077874
 30
0.0
 11
-209.0311638246931
 21
-102.4365887077874
 31
0.0
  0
ARC
  5
113
330
EA
100
AcDbEntity
  8
linea-spessa
100
AcDbCircle
 10
-709.7850193035555
 20
78.61136908744811
 30
0.0
 40
18.2
100
AcDbArc
 50
286.0690825612109
 51
0.0
  0
ARC
  5
114
330
EA
100
AcDbEntity
  8
linea-spessa
100
AcDbCircle
 10
-709.7850193035555
 20
-63.61136908654589
 30
0.0
 40
18.2
100
AcDbArc
 50
0.0
 51
73.93091743878911
  0
LINE
  5
115
330
EA
100
AcDbEntity
  8
linea-spessa
100
AcDbLine
 10
-691.5850193036312
 20
-63.61136908654589
 30
0.0
 11
-691.585019303573
 21
-161.7386297370976
 31
0.0
  0
ENDBLK
  5
116
330
EA
100
AcDbEntity
  8
0
100
AcDbBlockEnd
  0
ENDSEC
  0
SECTION
  2
ENTITIES
  0
INSERT
  5
2A
330
2
100
AcDbEntity
  8
LAYER1
100
AcDbBlockReference
 66
     1
  2
cart-r-a5
 10
203958.0791877905
 20
66125.05280847392
 30
0.0
  0
ATTRIB
  5
47
330
2A
100
AcDbEntity
  8
cart
 62
     7
100
AcDbText
 10
205371.8749611772
 20
66206.06362185965
 30
0.0
 40
20.0
  1
RL 34/1 MZ
 51
15.0
  7
SIMPLEX_INCLINATO
 72
     1
 11
205463.3035326058
 21
66216.06362185965
 31
0.0
100
AcDbAttribute
  2
DENOMINAZIONE
 70
     0
 74
     2
  0
ATTRIB
  5
48
330
2A
100
AcDbEntity
  8
cart
 62
     7
100
AcDbText
 10
204915.4405127914
 20
66203.56362185964
 30
0.0
 40
25.0
  1
-
 51
15.0
  7
SIMPLEX_INCLINATO
 72
     1
 11
204926.1547985057
 21
66216.06362185965
 31
0.0
100
AcDbAttribute
  2
COD
 70
     0
 74
     2
  0
SEQEND
  5
49
330
2A
100
AcDbEntity
  8
LAYER1
  0
INSERT
  5
4A
330
2
100
AcDbEntity
  8
linea-fine
100
AcDbBlockReference
  2
rl341mz1
 10
204955.8190406689
 20
67327.67666721073
 30
0.0
  0
INSERT
  5
A8
330
2
100
AcDbEntity
  8
linea-spessa
100
AcDbBlockReference
  2
rl341mz2
 10
205650.5313929547
 20
67022.67666721073
 30
0.0
  0
INSERT
  5
E9
330
2
100
AcDbEntity
  8
linea-spessa
100
AcDbBlockReference
  2
rl341mz3
 10
205164.8502044936
 20
66693.85234928566
 30
0.0
  0
ENDSEC
  0
SECTION
  2
OBJECTS
  0
DICTIONARY
  5
9
330
0
100
AcDbDictionary
281
     1
  3
ACAD_COLOR
350
26
  3
ACAD_GROUP
350
22
  3
ACAD_LAYOUT
350
D
  3
ACAD_MATERIAL
350
25
  3
ACAD_MLINESTYLE
350
23
  3
ACAD_PLOTSETTINGS
350
24
  3
ACAD_PLOTSTYLENAME
350
8
  3
ACDBHEADERROUNDTRIPXREC
350
127
  3
AcDbVariableDictionary
350
122
  3
ASE_INDEX_DICTIONARY
350
11F
  0
DICTIONARY
  5
3
330
2
100
AcDbDictionary
280
     1
281
     1
  3
ACAD_SORTENTS
360
117
  0
DICTIONARY
  5
26
102
{ACAD_REACTORS
330
9
102
}
330
9
100
AcDbDictionary
281
     1
  0
DICTIONARY
  5
22
102
{ACAD_REACTORS
330
9
102
}
330
9
100
AcDbDictionary
281
     1
  0
DICTIONARY
  5
D
102
{ACAD_REACTORS
330
9
102
}
330
9
100
AcDbDictionary
281
     1
  3
Layout1
350
11
  3
Model
350
C
  0
DICTIONARY
  5
25
102
{ACAD_REACTORS
330
9
102
}
330
9
100
AcDbDictionary
281
     1
  0
DICTIONARY
  5
23
102
{ACAD_REACTORS
330
9
102
}
330
9
100
AcDbDictionary
281
     1
  3
STANDARD
350
29
  0
DICTIONARY
  5
24
102
{ACAD_REACTORS
330
9
102
}
330
9
100
AcDbDictionary
281
     1
  0
ACDBDICTIONARYWDFLT
  5
8
102
{ACAD_REACTORS
330
9
102
}
330
9
100
AcDbDictionary
281
     1
  3
Normal
350
7
100
AcDbDictionaryWithDefault
340
7
  0
DICTIONARY
  5
127
102
{ACAD_REACTORS
330
9
102
}
330
9
100
AcDbDictionary
281
     1
  0
DICTIONARY
  5
122
102
{ACAD_REACTORS
330
9
102
}
330
9
100
AcDbDictionary
281
     1
  3
DIMASSOC
350
124
  3
HIDETEXT
350
123
  3
PROJECTNAME
350
125
  0
DICTIONARY
  5
11F
102
{ACAD_REACTORS
330
9
102
}
330
9
100
AcDbDictionary
281
     1
  3
ASEBlockHierarchyIndexRecord
350
121
1001
DCO15
1040
1593863067.218
  0
SORTENTSTABLE
  5
117
102
{ACAD_REACTORS
330
3
102
}
330
3
100
AcDbSortentsTable
330
2
  0
LAYOUT
  5
11
102
{ACAD_XDICTIONARY
360
12A
102
}
102
{ACAD_REACTORS
330
D
102
}
330
D
100
AcDbPlotSettings
  1

  2
none_device
  4
Letter_(8.50_x_11.00_Inches)
  6

 40
6.349999904632567
 41
6.349999904632567
 42
6.350006103515625
 43
6.350006103515625
 44
215.8999938964843
 45
279.3999938964843
 46
0.0
 47
0.0
 48
0.0
 49
0.0
140
0.0
141
0.0
142
1.0
143
1.0
 70
   688
 72
     0
 73
     1
 74
     5
  7

 75
    16
147
1.0
148
0.0
149
0.0
100
AcDbLayout
  1
Layout1
 70
     1
 71
     1
 10
-0.2500002402958907
 20
-0.2499999962453767
 11
10.74999951940821
 21
8.249999763458731
 12
0.0
 22
0.0
 32
0.0
 14
1.000000000000000E+20
 24
1.000000000000000E+20
 34
1.000000000000000E+20
 15
-1.000000000000000E+20
 25
-1.000000000000000E+20
 35
-1.000000000000000E+20
146
0.0
 13
0.0
 23
0.0
 33
0.0
 16
1.0
 26
0.0
 36
0.0
 17
0.0
 27
1.0
 37
0.0
 76
     0
330
E
  0
LAYOUT
  5
C
102
{ACAD_XDICTIONARY
360
128
102
}
102
{ACAD_REACTORS
330
D
102
}
330
D
100
AcDbPlotSettings
  1

  2
none_device
  4
Letter_(8.50_x_11.00_Inches)
  6

 40
6.349999904632567
 41
6.349999904632567
 42
6.350006103515625
 43
6.350006103515625
 44
215.8999938964843
 45
279.3999938964843
 46
0.0
 47
0.0
 48
0.0
 49
0.0
140
0.0
141
0.0
142
1.0
143
1.0
 70
 11952
 72
     0
 73
     1
 74
     0
  7

 75
     0
147
1.0
148
-765742.3961100315
149
-837894.7797368196
100
AcDbLayout
  1
Model
 70
     1
 71
     0
 10
0.0
 20
0.0
 11
12.0
 21
9.0
 12
0.0
 22
0.0
 32
0.0
 14
0.0
 24
0.0
 34
0.0
 15
0.0
 25
0.0
 35
0.0
146
0.0
 13
0.0
 23
0.0
 33
0.0
 16
1.0
 26
0.0
 36
0.0
 17
0.0
 27
1.0
 37
0.0
 76
     0
330
2
  0
MLINESTYLE
  5
29
102
{ACAD_REACTORS
330
23
102
}
330
23
100
AcDbMlineStyle
  2
STANDARD
 70
     0
  3

 62
     0
 51
90.0
 52
90.0
 71
     2
 49
0.5
 62
   256
  6
BYLAYER
 49
-0.5
 62
   256
  6
BYLAYER
  0
ACDBPLACEHOLDER
  5
7
102
{ACAD_REACTORS
330
8
102
}
330
8
  0
DICTIONARYVAR
  5
124
102
{ACAD_REACTORS
330
122
102
}
330
122
100
DictionaryVariables
280
     0
  1
1
  0
DICTIONARYVAR
  5
123
102
{ACAD_REACTORS
330
122
102
}
330
122
100
DictionaryVariables
280
     0
  1
1
  0
DICTIONARYVAR
  5
125
102
{ACAD_REACTORS
330
122
102
}
330
122
100
DictionaryVariables
280
     0
  1

  0
XRECORD
  5
121
102
{ACAD_REACTORS
330
11F
102
}
330
11F
100
AcDbXrecord
280
     1
330
A8
330
E9
330
2A
330
4A
  0
DICTIONARY
  5
12A
330
11
100
AcDbDictionary
280
     1
281
     1
  3
ACAD_XREC_ROUNDTRIP
360
12B
  0
DICTIONARY
  5
128
330
C
100
AcDbDictionary
280
     1
281
     1
  3
ACAD_XREC_ROUNDTRIP
360
129
  0
XRECORD
  5
12B
102
{ACAD_REACTORS
330
12A
102
}
330
12A
100
AcDbXrecord
280
     1
102
SHADEPLOT
 70
     0
102
SHADEPLOTRESLEVEL
 70
     2
102
SHADEPLOTCUSTOMDPI
 70
   300
  0
XRECORD
  5
129
102
{ACAD_REACTORS
330
128
102
}
330
128
100
AcDbXrecord
280
     1
102
SHADEPLOT
 70
     0
102
SHADEPLOTRESLEVEL
 70
     2
102
SHADEPLOTCUSTOMDPI
 70
   300
  0
ENDSEC
  0
EOF
