  0
SECTION
  2
HEADER
  9
$ACADVER
  1
AC1015
  9
$ACADMAINTVER
 70
    20
  9
$DWGCODEPAGE
  3
ANSI_1252
  9
$INSBASE
 10
205916.6668024007
 20
69209.72862537126
 30
0.0
  9
$EXTMIN
 10
205876.5668024006
 20
69209.62862537126
 30
0.0
  9
$EXTMAX
 10
210076.7668024007
 20
72179.82862537127
 30
0.0
  9
$LIMMIN
 10
0.0
 20
0.0
  9
$LIMMAX
 10
12.0
 20
9.0
  9
$ORTHOMODE
 70
     0
  9
$REGENMODE
 70
     1
  9
$FILLMODE
 70
     1
  9
$QTEXTMODE
 70
     0
  9
$MIRRTEXT
 70
     1
  9
$LTSCALE
 40
2.0
  9
$ATTMODE
 70
     1
  9
$TEXTSIZE
 40
20.0
  9
$TRACEWID
 40
0.05
  9
$TEXTSTYLE
  7
PPP
  9
$CLAYER
  8
linea-fine
  9
$CELTYPE
  6
BYLAYER
  9
$CECOLOR
 62
   256
  9
$CELTSCALE
 40
1.0
  9
$DISPSILH
 70
     0
  9
$DIMSCALE
 40
50.0
  9
$DIMASZ
 40
0.18
  9
$DIMEXO
 40
0.0625
  9
$DIMDLI
 40
0.38
  9
$DIMRND
 40
0.0
  9
$DIMDLE
 40
0.0
  9
$DIMEXE
 40
0.18
  9
$DIMTP
 40
0.0
  9
$DIMTM
 40
0.0
  9
$DIMTXT
 40
0.18
  9
$DIMCEN
 40
0.09
  9
$DIMTSZ
 40
0.0
  9
$DIMTOL
 70
     0
  9
$DIMLIM
 70
     0
  9
$DIMTIH
 70
     1
  9
$DIMTOH
 70
     1
  9
$DIMSE1
 70
     0
  9
$DIMSE2
 70
     0
  9
$DIMTAD
 70
     0
  9
$DIMZIN
 70
     0
  9
$DIMBLK
  1

  9
$DIMASO
 70
     1
  9
$DIMSHO
 70
     1
  9
$DIMPOST
  1

  9
$DIMAPOST
  1

  9
$DIMALT
 70
     0
  9
$DIMALTD
 70
     2
  9
$DIMALTF
 40
25.4
  9
$DIMLFAC
 40
1.0
  9
$DIMTOFL
 70
     0
  9
$DIMTVP
 40
0.0
  9
$DIMTIX
 70
     0
  9
$DIMSOXD
 70
     0
  9
$DIMSAH
 70
     0
  9
$DIMBLK1
  1

  9
$DIMBLK2
  1

  9
$DIMSTYLE
  2
STANDARD
  9
$DIMCLRD
 70
     0
  9
$DIMCLRE
 70
     0
  9
$DIMCLRT
 70
     0
  9
$DIMTFAC
 40
1.0
  9
$DIMGAP
 40
0.09
  9
$DIMJUST
 70
     0
  9
$DIMSD1
 70
     0
  9
$DIMSD2
 70
     0
  9
$DIMTOLJ
 70
     1
  9
$DIMTZIN
 70
     0
  9
$DIMALTZ
 70
     0
  9
$DIMALTTZ
 70
     0
  9
$DIMUPT
 70
     0
  9
$DIMDEC
 70
     0
  9
$DIMTDEC
 70
     0
  9
$DIMALTU
 70
     2
  9
$DIMALTTD
 70
     2
  9
$DIMTXSTY
  7
STANDARD
  9
$DIMAUNIT
 70
     0
  9
$DIMADEC
 70
     0
  9
$DIMALTRND
 40
0.0
  9
$DIMAZIN
 70
     0
  9
$DIMDSEP
 70
    46
  9
$DIMATFIT
 70
     3
  9
$DIMFRAC
 70
     0
  9
$DIMLDRBLK
  1

  9
$DIMLUNIT
 70
     2
  9
$DIMLWD
 70
    -2
  9
$DIMLWE
 70
    -2
  9
$DIMTMOVE
 70
     0
  9
$LUNITS
 70
     2
  9
$LUPREC
 70
     4
  9
$SKETCHINC
 40
0.1
  9
$FILLETRAD
 40
25.0
  9
$AUNITS
 70
     0
  9
$AUPREC
 70
     0
  9
$MENU
  1
.
  9
$ELEVATION
 40
0.0
  9
$PELEVATION
 40
0.0
  9
$THICKNESS
 40
0.0
  9
$LIMCHECK
 70
     0
  9
$CHAMFERA
 40
0.0
  9
$CHAMFERB
 40
0.0
  9
$CHAMFERC
 40
1.0
  9
$CHAMFERD
 40
0.0
  9
$SKPOLY
 70
     0
  9
$TDCREATE
 40
2451217.402450579
  9
$TDUCREATE
 40
2451217.319117245
  9
$TDUPDATE
 40
2454250.700803310
  9
$TDUUPDATE
 40
2454250.617469977
  9
$TDINDWG
 40
8.0394437500
  9
$TDUSRTIMER
 40
8.0394426620
  9
$USRTIMER
 70
     1
  9
$ANGBASE
 50
0.0
  9
$ANGDIR
 70
     0
  9
$PDMODE
 70
     0
  9
$PDSIZE
 40
0.0
  9
$PLINEWID
 40
0.0
  9
$SPLFRAME
 70
     0
  9
$SPLINETYPE
 70
     6
  9
$SPLINESEGS
 70
     8
  9
$HANDSEED
  5
3C5
  9
$SURFTAB1
 70
     6
  9
$SURFTAB2
 70
     6
  9
$SURFTYPE
 70
     6
  9
$SURFU
 70
     6
  9
$SURFV
 70
     6
  9
$UCSBASE
  2

  9
$UCSNAME
  2

  9
$UCSORG
 10
0.0
 20
0.0
 30
0.0
  9
$UCSXDIR
 10
1.0
 20
0.0
 30
0.0
  9
$UCSYDIR
 10
0.0
 20
1.0
 30
0.0
  9
$UCSORTHOREF
  2

  9
$UCSORTHOVIEW
 70
     0
  9
$UCSORGTOP
 10
0.0
 20
0.0
 30
0.0
  9
$UCSORGBOTTOM
 10
0.0
 20
0.0
 30
0.0
  9
$UCSORGLEFT
 10
0.0
 20
0.0
 30
0.0
  9
$UCSORGRIGHT
 10
0.0
 20
0.0
 30
0.0
  9
$UCSORGFRONT
 10
0.0
 20
0.0
 30
0.0
  9
$UCSORGBACK
 10
0.0
 20
0.0
 30
0.0
  9
$PUCSBASE
  2

  9
$PUCSNAME
  2

  9
$PUCSORG
 10
0.0
 20
0.0
 30
0.0
  9
$PUCSXDIR
 10
1.0
 20
0.0
 30
0.0
  9
$PUCSYDIR
 10
0.0
 20
1.0
 30
0.0
  9
$PUCSORTHOREF
  2

  9
$PUCSORTHOVIEW
 70
     0
  9
$PUCSORGTOP
 10
0.0
 20
0.0
 30
0.0
  9
$PUCSORGBOTTOM
 10
0.0
 20
0.0
 30
0.0
  9
$PUCSORGLEFT
 10
0.0
 20
0.0
 30
0.0
  9
$PUCSORGRIGHT
 10
0.0
 20
0.0
 30
0.0
  9
$PUCSORGFRONT
 10
0.0
 20
0.0
 30
0.0
  9
$PUCSORGBACK
 10
0.0
 20
0.0
 30
0.0
  9
$USERI1
 70
     0
  9
$USERI2
 70
     0
  9
$USERI3
 70
     0
  9
$USERI4
 70
     0
  9
$USERI5
 70
     0
  9
$USERR1
 40
0.0
  9
$USERR2
 40
0.0
  9
$USERR3
 40
0.0
  9
$USERR4
 40
0.0
  9
$USERR5
 40
0.0
  9
$WORLDVIEW
 70
     1
  9
$SHADEDGE
 70
     3
  9
$SHADEDIF
 70
    70
  9
$TILEMODE
 70
     1
  9
$MAXACTVP
 70
    48
  9
$PINSBASE
 10
0.0
 20
0.0
 30
0.0
  9
$PLIMCHECK
 70
     0
  9
$PEXTMIN
 10
1.000000000000000E+20
 20
1.000000000000000E+20
 30
1.000000000000000E+20
  9
$PEXTMAX
 10
-1.000000000000000E+20
 20
-1.000000000000000E+20
 30
-1.000000000000000E+20
  9
$PLIMMIN
 10
-0.2500002402958907
 20
-0.2499999962453767
  9
$PLIMMAX
 10
10.74999951940821
 20
8.249999763458731
  9
$UNITMODE
 70
     0
  9
$VISRETAIN
 70
     1
  9
$PLINEGEN
 70
     0
  9
$PSLTSCALE
 70
     1
  9
$TREEDEPTH
 70
  3020
  9
$CMLSTYLE
  2
STANDARD
  9
$CMLJUST
 70
     0
  9
$CMLSCALE
 40
1.0
  9
$PROXYGRAPHICS
 70
     1
  9
$MEASUREMENT
 70
     0
  9
$CELWEIGHT
370
    -1
  9
$ENDCAPS
280
     0
  9
$JOINSTYLE
280
     0
  9
$LWDISPLAY
290
     0
  9
$INSUNITS
 70
     0
  9
$HYPERLINKBASE
  1

  9
$STYLESHEET
  1

  9
$XEDIT
290
     1
  9
$CEPSNTYPE
380
     0
  9
$PSTYLEMODE
290
     1
  9
$FINGERPRINTGUID
  2
{263BAEA8-9A8D-49D4-8968-34FAF640D174}
  9
$VERSIONGUID
  2
{C13A3F77-D72B-4785-99E5-EF6F9E2315BE}
  9
$EXTNAMES
290
     1
  9
$PSVPSCALE
 40
0.0
  9
$OLESTARTUP
290
     0
  0
ENDSEC
  0
SECTION
  2
CLASSES
  0
CLASS
  1
IMAGEDEF
  2
AcDbRasterImageDef
  3
ISM
 90
    32768
280
     1
281
     0
  0
CLASS
  1
ACDBDICTIONARYWDFLT
  2
AcDbDictionaryWithDefault
  3
ObjectDBX Classes
 90
        0
280
     0
281
     0
  0
CLASS
  1
ACDBPLACEHOLDER
  2
AcDbPlaceHolder
  3
ObjectDBX Classes
 90
        0
280
     0
281
     0
  0
CLASS
  1
LAYOUT
  2
AcDbLayout
  3
ObjectDBX Classes
 90
        0
280
     0
281
     0
  0
CLASS
  1
RASTERVARIABLES
  2
AcDbRasterVariables
  3
ISM
 90
    32768
280
     1
281
     0
  0
CLASS
  1
IMAGEDEF_REACTOR
  2
AcDbRasterImageDefReactor
  3
ISM
 90
    32769
280
     1
281
     0
  0
CLASS
  1
IMAGE
  2
AcDbRasterImage
  3
ISM
 90
    32895
280
     1
281
     1
  0
CLASS
  1
DICTIONARYVAR
  2
AcDbDictionaryVar
  3
ObjectDBX Classes
 90
        0
280
     0
281
     0
  0
CLASS
  1
SORTENTSTABLE
  2
AcDbSortentsTable
  3
ObjectDBX Classes
 90
        0
280
     0
281
     0
  0
CLASS
  1
PLOTSETTINGS
  2
AcDbPlotSettings
  3
ObjectDBX Classes
 90
    32768
280
     0
281
     0
  0
ENDSEC
  0
SECTION
  2
TABLES
  0
TABLE
  2
VPORT
  5
1B
330
0
100
AcDbSymbolTable
 70
     2
  0
VPORT
  5
3BF
330
1B
100
AcDbSymbolTableRecord
100
AcDbViewportTableRecord
  2
*Active
 70
     0
 10
0.0
 20
0.0
 11
1.0
 21
1.0
 12
208062.2921454527
 22
71213.16619077836
 13
0.0
 23
0.0
 14
0.5
 24
0.5
 15
0.5
 25
0.5
 16
0.0
 26
0.0
 36
1.0
 17
0.0
 27
0.0
 37
0.0
 40
6542.987558475136
 41
1.364625850340136
 42
50.0
 43
0.0
 44
0.0
 50
0.0
 51
0.0
 71
     0
 72
   100
 73
     1
 74
     3
 75
     0
 76
     0
 77
     0
 78
     0
281
     0
 65
     1
110
0.0
120
0.0
130
0.0
111
1.0
121
0.0
131
0.0
112
0.0
122
1.0
132
0.0
 79
     0
146
0.0
  0
ENDTAB
  0
TABLE
  2
LTYPE
  5
16
330
0
100
AcDbSymbolTable
 70
     2
  0
LTYPE
  5
17
330
16
100
AcDbSymbolTableRecord
100
AcDbLinetypeTableRecord
  2
BYBLOCK
 70
     0
  3

 72
    65
 73
     0
 40
0.0
  0
LTYPE
  5
18
330
16
100
AcDbSymbolTableRecord
100
AcDbLinetypeTableRecord
  2
BYLAYER
 70
     0
  3

 72
    65
 73
     0
 40
0.0
  0
LTYPE
  5
A
330
16
100
AcDbSymbolTableRecord
100
AcDbLinetypeTableRecord
  2
CONTINUOUS
 70
     0
  3
Solid line
 72
    65
 73
     0
 40
0.0
  0
LTYPE
  5
3A1
330
16
100
AcDbSymbolTableRecord
100
AcDbLinetypeTableRecord
  2
DASHDOT
 70
     0
  3
 __ . __ . __ . __ . __ . __ . __ . 
 72
    65
 73
     4
 40
18.5
 49
12.0
 74
     0
 49
-3.0
 74
     0
 49
0.5
 74
     0
 49
-3.0
 74
     0
  0
ENDTAB
  0
TABLE
  2
LAYER
  5
12
330
0
100
AcDbSymbolTable
 70
     5
  0
LAYER
  5
6
330
12
100
AcDbSymbolTableRecord
100
AcDbLayerTableRecord
  2
0
 70
     0
 62
   174
  6
CONTINUOUS
370
    -3
390
7
  0
LAYER
  5
40
330
12
100
AcDbSymbolTableRecord
100
AcDbLayerTableRecord
  2
SIMB-RIELLO
 70
     0
 62
     1
  6
CONTINUOUS
370
    -3
390
7
  0
LAYER
  5
2F
330
12
100
AcDbSymbolTableRecord
100
AcDbLayerTableRecord
  2
cart
 70
     0
 62
   150
  6
CONTINUOUS
370
    -3
390
7
  0
LAYER
  5
2B
330
12
100
AcDbSymbolTableRecord
100
AcDbLayerTableRecord
  2
linea-spessa
 70
     0
 62
     1
  6
CONTINUOUS
370
    -3
390
7
  0
LAYER
  5
27
330
12
100
AcDbSymbolTableRecord
100
AcDbLayerTableRecord
  2
linea-fine
 70
     0
 62
     3
  6
CONTINUOUS
370
    -3
390
7
  0
ENDTAB
  0
TABLE
  2
STYLE
  5
13
330
0
100
AcDbSymbolTable
 70
     3
  0
STYLE
  5
14
330
13
100
AcDbSymbolTableRecord
100
AcDbTextStyleTableRecord
  2
STANDARD
 70
     0
 40
0.0
 41
1.0
 50
0.0
 71
     0
 42
10.0
  3
romans.shx
  4

  0
STYLE
  5
32
330
13
100
AcDbSymbolTableRecord
100
AcDbTextStyleTableRecord
  2
SIMPLEX_INCLINATO
 70
     0
 40
2.0
 41
1.0
 50
15.0
 71
     0
 42
89.95247795954492
  3
simplex.shx
  4

  0
STYLE
  5
28
330
13
100
AcDbSymbolTableRecord
100
AcDbTextStyleTableRecord
  2
PPP
 70
     0
 40
0.0
 41
1.0
 50
0.0
 71
     0
 42
20.0
  3
swissl.ttf
  4

1001
ACAD
1000
Swis721 Lt BT
1071
       34
  0
ENDTAB
  0
TABLE
  2
VIEW
  5
19
330
0
100
AcDbSymbolTable
 70
     0
  0
ENDTAB
  0
TABLE
  2
UCS
  5
1A
330
0
100
AcDbSymbolTable
 70
     0
  0
ENDTAB
  0
TABLE
  2
APPID
  5
1D
330
0
100
AcDbSymbolTable
 70
     2
  0
APPID
  5
1E
330
1D
100
AcDbSymbolTableRecord
100
AcDbRegAppTableRecord
  2
ACAD
 70
     0
  0
APPID
  5
3B9
330
1D
100
AcDbSymbolTableRecord
100
AcDbRegAppTableRecord
  2
DCO15
 70
     0
  0
ENDTAB
  0
TABLE
  2
DIMSTYLE
  5
1F
330
0
100
AcDbSymbolTable
 70
     1
100
AcDbDimStyleTable
 71
     1
340
20
  0
DIMSTYLE
105
20
330
1F
100
AcDbSymbolTableRecord
100
AcDbDimStyleTableRecord
  2
STANDARD
 70
     0
 40
50.0
271
     0
272
     0
340
14
  0
ENDTAB
  0
TABLE
  2
BLOCK_RECORD
  5
1
330
0
100
AcDbSymbolTable
 70
     5
  0
BLOCK_RECORD
  5
2
102
{ACAD_XDICTIONARY
360
3
102
}
330
1
100
AcDbSymbolTableRecord
100
AcDbBlockTableRecord
  2
*MODEL_SPACE
340
C
  0
BLOCK_RECORD
  5
E
330
1
100
AcDbSymbolTableRecord
100
AcDbBlockTableRecord
  2
*PAPER_SPACE
340
11
  0
BLOCK_RECORD
  5
2C
330
1
100
AcDbSymbolTableRecord
100
AcDbBlockTableRecord
  2
CART-R-A3
340
0
102
{BLKREFS
331
2A
102
}
  0
BLOCK_RECORD
  5
4B
330
1
100
AcDbSymbolTableRecord
100
AcDbBlockTableRecord
  2
rl55-85mblu1
340
0
310
2800000020000000200000000100080000000000000400000000000000000000000000000000000000000000000080000080000000808000800000008000800080800000C0C0C000C0DCC000F0CAA6000020400000206000002080000020A0000020C0000020E00000400000004020000040400000406000004080000040A0
310
000040C0000040E00000600000006020000060400000606000006080000060A0000060C0000060E00000800000008020000080400000806000008080000080A0000080C0000080E00000A0000000A0200000A0400000A0600000A0800000A0A00000A0C00000A0E00000C0000000C0200000C0400000C0600000C0800000C0
310
A00000C0C00000C0E00000E0000000E0200000E0400000E0600000E0800000E0A00000E0C00000E0E00040000000400020004000400040006000400080004000A0004000C0004000E00040200000402020004020400040206000402080004020A0004020C0004020E000404000004040200040404000404060004040800040
310
40A0004040C0004040E00040600000406020004060400040606000406080004060A0004060C0004060E00040800000408020004080400040806000408080004080A0004080C0004080E00040A0000040A0200040A0400040A0600040A0800040A0A00040A0C00040A0E00040C0000040C0200040C0400040C0600040C08000
310
40C0A00040C0C00040C0E00040E0000040E0200040E0400040E0600040E0800040E0A00040E0C00040E0E00080000000800020008000400080006000800080008000A0008000C0008000E00080200000802020008020400080206000802080008020A0008020C0008020E00080400000804020008040400080406000804080
310
008040A0008040C0008040E00080600000806020008060400080606000806080008060A0008060C0008060E00080800000808020008080400080806000808080008080A0008080C0008080E00080A0000080A0200080A0400080A0600080A0800080A0A00080A0C00080A0E00080C0000080C0200080C0400080C0600080C0
310
800080C0A00080C0C00080C0E00080E0000080E0200080E0400080E0600080E0800080E0A00080E0C00080E0E000C0000000C0002000C0004000C0006000C0008000C000A000C000C000C000E000C0200000C0202000C0204000C0206000C0208000C020A000C020C000C020E000C0400000C0402000C0404000C0406000C0
310
408000C040A000C040C000C040E000C0600000C0602000C0604000C0606000C0608000C060A000C060C000C060E000C0800000C0802000C0804000C0806000C0808000C080A000C080C000C080E000C0A00000C0A02000C0A04000C0A06000C0A08000C0A0A000C0A0C000C0A0E000C0C00000C0C02000C0C04000C0C06000
310
C0C08000C0C0A000F0FBFF00A4A0A000808080000000FF0000FF000000FFFF00FF000000FF00FF00FFFF0000FFFFFF0000000000000000000000000000000000000000000000000000000000000000000000000000000000000000000000000000000000000000000000000000000000000000000000000000000000000000
310
00000000000000000000000000000000000000000000000000000000000000000000000000000000000000000000000000000000000000000000000000000000000000000000000000000000000000000000000000000000000000000000000000000000000000000000000000000000000000000000000000000000000000
310
000000000000000000000000000000000000000000000000000000000000000000000000000000000000000000000000000000000000000000000000000000000000000000000000000000000000000000000000000000000000FA00000000F9F9F9F90000000000000000000000000000000000000000FAFAFAFA0000F9F9
310
F9F9F9F9F9000000000000000000000000000000000000FAFAFAFAFA00F9F9F9F9F9F9F9F9F900000000000000000000000000000000FAFAFAFAFA00F9F9F9F9F9F900F9F9F9F9000000000000000000000000000000FAFAFAFAFA00F900F9F9F9F9F9F9F9F9F9000000000000000000000000000000FA00FAFA0000F900F9
310
00F9F9F900F9F9F90000000000000000000000000000FAFA00FAFAF9F9F900F9F9F9F9F9F9F9F9F900000000000000000000000000FAFAFAFAFAFAF9F9F9F9F9F9F9F9F9F9F9F9F9F9F9F9F9F9F9F9F9F9F900000000FA000000FAF9F9000000F9F9F9F9F9F9F9F9F9F9F9000000000000F9F9000000FAFAFA0000FAF9F900
310
0000F9F9F9F900F9F9F9F9F9000000000000F9F900000000FA00FAFAFA00F9F9F9F9F9F9F9F9F900F9F9F9F9000000000000F9F90000000000FA00FA000000F900F9F9F9F9F9F9F9F9F9F9F9000000000000F9F9000000000000FAFAFA000000F9F9F9F9F9F9F9F9F9F9F9F9F9F9F9F9F9F9F9000000000000000000000000
310
00000000000000000000F9F9F9000000000000000000000000000000000000000000000000000000000000000000000000000000000000000000000000000000000000000000000000000000000000000000000000000000000000000000000000000000000000000000000000000000000000000000000000000000000000
310
00000000000000000000000000000000000000000000000000000000000000000000000000000000000000000000000000000000000000000000000000000000000000000000000000000000000000000000000000000000000000000000000000000000000000000000000000000000000000000000000000000000000000
310
0000000000000000000000000000000000000000000000000000000000000000000000000000000000000000000000000000000000000000
102
{BLKREFS
331
4A
102
}
  0
BLOCK_RECORD
  5
1B0
330
1
100
AcDbSymbolTableRecord
100
AcDbBlockTableRecord
  2
rl55-85mblu2
340
0
310
2800000020000000200000000100080000000000000400000000000000000000000000000000000000000000000080000080000000808000800000008000800080800000C0C0C000C0DCC000F0CAA6000020400000206000002080000020A0000020C0000020E00000400000004020000040400000406000004080000040A0
310
000040C0000040E00000600000006020000060400000606000006080000060A0000060C0000060E00000800000008020000080400000806000008080000080A0000080C0000080E00000A0000000A0200000A0400000A0600000A0800000A0A00000A0C00000A0E00000C0000000C0200000C0400000C0600000C0800000C0
310
A00000C0C00000C0E00000E0000000E0200000E0400000E0600000E0800000E0A00000E0C00000E0E00040000000400020004000400040006000400080004000A0004000C0004000E00040200000402020004020400040206000402080004020A0004020C0004020E000404000004040200040404000404060004040800040
310
40A0004040C0004040E00040600000406020004060400040606000406080004060A0004060C0004060E00040800000408020004080400040806000408080004080A0004080C0004080E00040A0000040A0200040A0400040A0600040A0800040A0A00040A0C00040A0E00040C0000040C0200040C0400040C0600040C08000
310
40C0A00040C0C00040C0E00040E0000040E0200040E0400040E0600040E0800040E0A00040E0C00040E0E00080000000800020008000400080006000800080008000A0008000C0008000E00080200000802020008020400080206000802080008020A0008020C0008020E00080400000804020008040400080406000804080
310
008040A0008040C0008040E00080600000806020008060400080606000806080008060A0008060C0008060E00080800000808020008080400080806000808080008080A0008080C0008080E00080A0000080A0200080A0400080A0600080A0800080A0A00080A0C00080A0E00080C0000080C0200080C0400080C0600080C0
310
800080C0A00080C0C00080C0E00080E0000080E0200080E0400080E0600080E0800080E0A00080E0C00080E0E000C0000000C0002000C0004000C0006000C0008000C000A000C000C000C000E000C0200000C0202000C0204000C0206000C0208000C020A000C020C000C020E000C0400000C0402000C0404000C0406000C0
310
408000C040A000C040C000C040E000C0600000C0602000C0604000C0606000C0608000C060A000C060C000C060E000C0800000C0802000C0804000C0806000C0808000C080A000C080C000C080E000C0A00000C0A02000C0A04000C0A06000C0A08000C0A0A000C0A0C000C0A0E000C0C00000C0C02000C0C04000C0C06000
310
C0C08000C0C0A000F0FBFF00A4A0A000808080000000FF0000FF000000FFFF00FF000000FF00FF00FFFF0000FFFFFF0000000000000000000000000000000000000000000000000000000000000000000000000000000000000000000000000000000000000000000000000000000000000000000000000000000000000000
310
00000000000000000000000000000000000000000000000000000000000000000000000000000000000000000000000000000000000000000000000000F9F9F9F9F9F9F900000000000000000000000000000000000000000000000000F900F9000000F9F9F9F900000000000000000000000000000000000000000000F900
310
F9000000F9000000F9F90000000000000000000000000000000000000000F900F9000000F900000000F90000000000000000000000000000000000000000F900F9000000F900000000F9F9000000000000000000000000000000F9F9F9F9F900F9000000F900000000F9F9F90000000000000000000000000000F9F9F9F9F9
310
00F9000000F900000000F9F9F9000000000000000000F9F9F9F9F9F9F9F9F9F900F9000000F900000000F9F9F900000000000000F9F9F9F9F9F9F9F9F9F9F9F900F9000000F900000000F9F9F9F9000000000000F90000F9F9F9F9F9F9F9F9F9F9F9F9F9F9F9F9000000F9F900F9000000000000F90000F9F9F9F9F9F9F9F9
310
00000000000000F9000000F9F900F9000000000000F90000F9F9F9F9F9F9F9F900000000000000F90000F9F9F9F9F9000000000000F9F9F9F9F9F9F9F9F9F9F90000000000000000F9F9F9F9F9F90000000000000000F9F9F9F9F9F9F9F9F9F9F9F9F9F9F9F9F9F9F9F9F9F9F9F9F9F9F9F9F90000000000000000F9000000
310
000000000000000000000000F9F9F9F9000000000000000000000000F900F9F9F9F9F9F9F9F9F9F9F9F9F900F9F9F9F9F9F900000000000000000000F9F900000000000000000000000000F900F9F9F9F9F900000000000000000000F900F9F9F9F9F9F9F9F9F9F9F9F900F9F9F9F9F9F9F90000000000000000000000F9F9
310
F9F9F9F9F9F9F9F9F9F9F900F9000000F9F9F90000000000000000000000F9F9F900F9F9F900F9F9F900F900F9000000F9F9F90000000000000000000000F9F9F9F9F9F9F9F9F9F9F9F9F9F9000000000000000000000000000000000000F900F9F9F900F9F9F900F9F9F9F900000000000000000000000000000000000000
310
F9F9F9F9F9F9F9F9F9F9F9F9F9000000000000000000000000000000000000000000000000F9F9F9000000000000000000000000000000000000000000000000000000000000000000000000000000000000000000000000000000000000000000000000000000000000000000000000000000000000000000000000000000
310
0000000000000000000000000000000000000000000000000000000000000000000000000000000000000000000000000000000000000000
102
{BLKREFS
331
1AF
102
}
  0
BLOCK_RECORD
  5
265
330
1
100
AcDbSymbolTableRecord
100
AcDbBlockTableRecord
  2
rl55-85mblu3
340
0
310
2800000020000000200000000100080000000000000400000000000000000000000000000000000000000000000080000080000000808000800000008000800080800000C0C0C000C0DCC000F0CAA6000020400000206000002080000020A0000020C0000020E00000400000004020000040400000406000004080000040A0
310
000040C0000040E00000600000006020000060400000606000006080000060A0000060C0000060E00000800000008020000080400000806000008080000080A0000080C0000080E00000A0000000A0200000A0400000A0600000A0800000A0A00000A0C00000A0E00000C0000000C0200000C0400000C0600000C0800000C0
310
A00000C0C00000C0E00000E0000000E0200000E0400000E0600000E0800000E0A00000E0C00000E0E00040000000400020004000400040006000400080004000A0004000C0004000E00040200000402020004020400040206000402080004020A0004020C0004020E000404000004040200040404000404060004040800040
310
40A0004040C0004040E00040600000406020004060400040606000406080004060A0004060C0004060E00040800000408020004080400040806000408080004080A0004080C0004080E00040A0000040A0200040A0400040A0600040A0800040A0A00040A0C00040A0E00040C0000040C0200040C0400040C0600040C08000
310
40C0A00040C0C00040C0E00040E0000040E0200040E0400040E0600040E0800040E0A00040E0C00040E0E00080000000800020008000400080006000800080008000A0008000C0008000E00080200000802020008020400080206000802080008020A0008020C0008020E00080400000804020008040400080406000804080
310
008040A0008040C0008040E00080600000806020008060400080606000806080008060A0008060C0008060E00080800000808020008080400080806000808080008080A0008080C0008080E00080A0000080A0200080A0400080A0600080A0800080A0A00080A0C00080A0E00080C0000080C0200080C0400080C0600080C0
310
800080C0A00080C0C00080C0E00080E0000080E0200080E0400080E0600080E0800080E0A00080E0C00080E0E000C0000000C0002000C0004000C0006000C0008000C000A000C000C000C000E000C0200000C0202000C0204000C0206000C0208000C020A000C020C000C020E000C0400000C0402000C0404000C0406000C0
310
408000C040A000C040C000C040E000C0600000C0602000C0604000C0606000C0608000C060A000C060C000C060E000C0800000C0802000C0804000C0806000C0808000C080A000C080C000C080E000C0A00000C0A02000C0A04000C0A06000C0A08000C0A0A000C0A0C000C0A0E000C0C00000C0C02000C0C04000C0C06000
310
C0C08000C0C0A000F0FBFF00A4A0A000808080000000FF0000FF000000FFFF00FF000000FF00FF00FFFF0000FFFFFF0000000000000000000000000000000000000000000000000000000000000000000000000000000000000000000000000000000000000000000000000000000000000000000000000000000000000000
310
00000000000000000000000000000000000000000000000000000000000000000000000000000000000000000000000000000000000000000000000000000000000000000000000000000000000000000000000000000000000000000000000000000000000000000000000000000000000000000000000000000000000000
310
0000000000000000000000000000000000000000000000000000000000000000000000000000000000000000000000000000000000000000000000000000F9F9F9F9F9000000000000000000000000000000000000000000000000000000F9F9F9F9F9000000000000000000000000000000000000000000000000000000F9
310
F9F9F9F9F9F9F9000000000000000000000000000000FAFAFAFAFA00F9F9F9F9F9F9F9F9F9F9F90000000000000000000000000000FA000000FAFAF90000F9F9F9F900F9F9F9F90000000000000000000000000000FA00000000F9F9F9F9F9000000F9F9F9F9F9F9F9F90000000000000000000000FA00000000F9F9F9F9F9
310
0000000000F9F9F9F9F9F9F9F9F9F9F9F9F9000000FA0000000000F9F9F9F9F9000000000000F900F9F9F9000000000000F9F90000FA0000000000F9F9F9F9F9000000000000F900F9F9F9000000000000F9F90000FA0000000000F9F9F9F9F9000000000000F900F9F9F9000000000000F9F9000000FA00000000F9F9F9F9
310
F90000000000F9F9F9F9F9F9F9F9F9F9F9F9F900000000FA00000000F9F9F9F9F900F9F9F9F900F9F900F9F90000000000000000000000FAFAFAFAFAFAF9F9F9F9F9F9F9F9F900F9F900000000000000000000000000000000000000FA00000000F9F9F9F9F900000000000000000000000000000000000000000000FA0000
310
0000F9F9F9F9F900000000000000000000000000000000000000000000FA0000000000F9F9F90000000000000000000000000000000000000000000000000000000000000000000000000000000000000000000000000000000000000000000000000000000000000000000000000000000000000000000000000000000000
310
00000000000000000000000000000000000000000000000000000000000000000000000000000000000000000000000000000000000000000000000000000000000000000000000000000000000000000000000000000000000000000000000000000000000000000000000000000000000000000000000000000000000000
310
0000000000000000000000000000000000000000000000000000000000000000000000000000000000000000000000000000000000000000
102
{BLKREFS
331
264
102
}
  0
BLOCK_RECORD
  5
39D
330
1
100
AcDbSymbolTableRecord
100
AcDbBlockTableRecord
  2
rl55-85mblu4
340
0
310
2800000020000000200000000100080000000000000400000000000000000000000000000000000000000000000080000080000000808000800000008000800080800000C0C0C000C0DCC000F0CAA6000020400000206000002080000020A0000020C0000020E00000400000004020000040400000406000004080000040A0
310
000040C0000040E00000600000006020000060400000606000006080000060A0000060C0000060E00000800000008020000080400000806000008080000080A0000080C0000080E00000A0000000A0200000A0400000A0600000A0800000A0A00000A0C00000A0E00000C0000000C0200000C0400000C0600000C0800000C0
310
A00000C0C00000C0E00000E0000000E0200000E0400000E0600000E0800000E0A00000E0C00000E0E00040000000400020004000400040006000400080004000A0004000C0004000E00040200000402020004020400040206000402080004020A0004020C0004020E000404000004040200040404000404060004040800040
310
40A0004040C0004040E00040600000406020004060400040606000406080004060A0004060C0004060E00040800000408020004080400040806000408080004080A0004080C0004080E00040A0000040A0200040A0400040A0600040A0800040A0A00040A0C00040A0E00040C0000040C0200040C0400040C0600040C08000
310
40C0A00040C0C00040C0E00040E0000040E0200040E0400040E0600040E0800040E0A00040E0C00040E0E00080000000800020008000400080006000800080008000A0008000C0008000E00080200000802020008020400080206000802080008020A0008020C0008020E00080400000804020008040400080406000804080
310
008040A0008040C0008040E00080600000806020008060400080606000806080008060A0008060C0008060E00080800000808020008080400080806000808080008080A0008080C0008080E00080A0000080A0200080A0400080A0600080A0800080A0A00080A0C00080A0E00080C0000080C0200080C0400080C0600080C0
310
800080C0A00080C0C00080C0E00080E0000080E0200080E0400080E0600080E0800080E0A00080E0C00080E0E000C0000000C0002000C0004000C0006000C0008000C000A000C000C000C000E000C0200000C0202000C0204000C0206000C0208000C020A000C020C000C020E000C0400000C0402000C0404000C0406000C0
310
408000C040A000C040C000C040E000C0600000C0602000C0604000C0606000C0608000C060A000C060C000C060E000C0800000C0802000C0804000C0806000C0808000C080A000C080C000C080E000C0A00000C0A02000C0A04000C0A06000C0A08000C0A0A000C0A0C000C0A0E000C0C00000C0C02000C0C04000C0C06000
310
C0C08000C0C0A000F0FBFF00A4A0A000808080000000FF0000FF000000FFFF00FF000000FF00FF00FFFF0000FFFFFF00000000000000000000000000000000000000000000000000000000000000000000FAFAFAFAFAFAFAFAFAFAFAFAFAFAFAFAFAFAFAFAFAFAFAFAFAFAFAFAFAFA0000FA00000000000000000000000000
310
000000000000000000000000000000FA0000FA0000000000000000000000FAFAFAFAFA000000000000000000000000FA0000FA000000000000000000FAFA0000000000FAFAFAFA0000000000000000FA0000FA00000000000000FAFA0000FAFAFAFAFAFA000000FA00000000000000FA0000FA00000000F9FAFA0000FAFA00
310
0000000000FAFA0000FAF9F900000000FA0000FA00000000FAF90000FA00000000000000000000FA0000FAFA00000000FA0000FA000000FA0000FAFA000000F9F9F9F9F900000000FAFA0000FA000000FA0000FA000000FA0000FA000000F90000000000F9F9F9000000FA00FA000000FA0000FA0000FA0000FA0000F9F900
310
0000000000000000F90000FA0000FA0000FA0000FA0000FA00FA0000F90000000000000000000000F9000000FA00FA0000FA0000FA00FA0000FA0000F9000000000000000000000000F9000000FA00FA00FA0000FA00FA00FA0000F90000000000000000000000000000F90000FA00FA00FA0000FA00FA00FA0000F9000000
310
0000000000000000000000F90000FA00FA00FA0000FA00FA00FA0000F90000000000000000000000000000F90000FA00FA00FA0000FA00FA00FA0000F90000000000000000000000000000F90000FA00FA00FA0000FA00FA00FA0000F90000000000000000000000000000F90000FA00FA00FA0000FA00FA00FA0000F90000
310
000000000000000000000000F90000FA00FA00FA0000FA00FA0000FA0000F9000000000000000000000000F9000000FA00FA00FA0000FA0000FA00FA0000F90000000000000000000000F9000000FA00FA0000FA0000FA0000FA0000FA0000F900000000000000000000F90000FA0000FA0000FA0000FA000000FA0000FA00
310
00F9F90000000000F9F9F9000000FA00FA000000FA0000FA000000FA0000FA00000000F9F9F9F9F90000000000FA0000FA000000FA0000FA00000000FAF900FAFA00000000000000000000FAFA00F9FA00000000FA0000FA00000000F9FA000000FA0000000000000000FA0000FAFAF900000000FA0000FA000000000000FA
310
FA0000FAFAFAFAFAFAFAFA0000FA00000000000000FA0000FA0000000000000000FAFA00000000000000FAFAFA0000000000000000FA0000FA00000000000000000000FAFAFAFAFAFAFA0000000000000000000000FA0000FA00000000000000000000000000000000000000000000000000000000FA0000FAFAFAFAFAFAFA
310
FAFAFAFAFAFAFAFAFAFAFAFAFAFAFAFAFAFAFAFAFAFAFA000000000000000000000000000000000000000000000000000000000000000000
102
{BLKREFS
331
39C
102
}
  0
ENDTAB
  0
ENDSEC
  0
SECTION
  2
BLOCKS
  0
BLOCK
  5
5
330
2
100
AcDbEntity
  8
0
100
AcDbBlockBegin
  2
*MODEL_SPACE
 70
     2
 10
0.0
 20
0.0
 30
0.0
  3
*MODEL_SPACE
  1

  0
ENDBLK
  5
B
330
2
100
AcDbEntity
  8
0
100
AcDbBlockEnd
  0
BLOCK
  5
F
330
E
100
AcDbEntity
 67
     1
  8
0
100
AcDbBlockBegin
  2
*PAPER_SPACE
 70
     0
 10
0.0
 20
0.0
 30
0.0
  3
*PAPER_SPACE
  1

  0
ENDBLK
  5
10
330
E
100
AcDbEntity
 67
     1
  8
0
100
AcDbBlockEnd
  0
BLOCK
  5
2D
330
2C
100
AcDbEntity
  8
0
100
AcDbBlockBegin
  2
CART-R-A3
 70
     2
 10
0.0
 20
0.0
 30
0.0
  3
CART-R-A3
  1

  0
LINE
  5
2E
330
2C
100
AcDbEntity
  8
cart
100
AcDbLine
 10
835.5070225047892
 20
197.3143560261851
 30
0.0
 11
2060.0
 21
197.3143560261851
 31
0.0
  0
LINE
  5
30
330
2C
100
AcDbEntity
  8
cart
100
AcDbLine
 10
835.5070225047892
 20
142.0216267714603
 30
0.0
 11
2060.0
 21
142.0216267714604
 31
0.0
  0
TEXT
  5
31
330
2C
100
AcDbEntity
  8
cart
 62
     8
100
AcDbText
 10
884.7422773817966
 20
157.1679913988227
 30
0.0
 40
25.0
  1
codice n.
  7
SIMPLEX_INCLINATO
 72
     1
 11
968.0756107151299
 21
169.6679913988227
 31
0.0
100
AcDbText
 73
     2
  0
TEXT
  5
33
330
2C
100
AcDbEntity
  8
cart
 62
     8
100
AcDbText
 10
1240.938630529565
 20
157.1679913988227
 30
0.0
 40
25.0
  1
denominazione commerciale
  7
SIMPLEX_INCLINATO
 72
     1
 11
1505.22434481528
 21
169.6679913988227
 31
0.0
100
AcDbText
 73
     2
  0
TEXT
  5
34
330
2C
100
AcDbEntity
  8
cart
 62
     8
100
AcDbText
 10
1940.854626304926
 20
157.1679913988227
 30
0.0
 40
25.0
  1
scala
  7
SIMPLEX_INCLINATO
 72
     1
 11
1984.902245352545
 21
169.6679913988227
 31
0.0
100
AcDbText
 73
     2
  0
LINE
  5
35
330
2C
100
AcDbEntity
  8
cart
100
AcDbLine
 10
-1745.750248237025
 20
2772.685643973815
 30
0.0
 11
-1745.750248237025
 21
2930.0
 31
0.0
  0
LINE
  5
36
330
2C
100
AcDbEntity
  8
cart
100
AcDbLine
 10
-2060.0
 20
2772.685643973815
 30
0.0
 11
-1745.750248237025
 21
2772.685643973815
 31
0.0
  0
LWPOLYLINE
  5
37
330
2C
100
AcDbEntity
  8
cart
100
AcDbPolyline
 90
        4
 70
     1
 43
5.0
 10
2060.0
 20
40.0
 10
2060.0
 20
2930.0
 10
-2060.0
 20
2930.0
 10
-2060.0
 20
40.00000000000091
  0
LWPOLYLINE
  5
38
330
2C
100
AcDbEntity
  8
cart
100
AcDbPolyline
 90
        5
 70
     1
 43
0.2
 10
2100.0
 20
0.0
 10
2100.0
 20
0.0
 10
2100.0
 20
2970.0
 10
-2100.0
 20
2970.0
 10
-2100.0
 20
0.0
  0
LINE
  5
39
330
2C
100
AcDbEntity
  8
cart
100
AcDbLine
 10
835.5070225047892
 20
40.00000000000068
 30
0.0
 11
835.5070225047892
 21
197.3143560261851
 31
0.0
  0
LINE
  5
3A
330
2C
100
AcDbEntity
  8
cart
100
AcDbLine
 10
1100.64419892547
 20
40.00000000000068
 30
0.0
 11
1100.64419892547
 21
197.3143560261851
 31
0.0
  0
LINE
  5
3B
330
2C
100
AcDbEntity
  8
cart
100
AcDbLine
 10
1909.804490705089
 20
40.0000000000001
 30
0.0
 11
1909.804490705089
 21
197.3143560261851
 31
0.0
  0
TEXT
  5
3C
330
2C
100
AcDbEntity
  8
cart
 62
     7
100
AcDbText
 10
1967.759388209688
 20
78.51081338573028
 30
0.0
 40
25.0
  1
1:1
 41
0.8
 51
15.0
  7
SIMPLEX_INCLINATO
 72
     1
 11
1984.902245352545
 21
91.01081338573029
 31
0.0
100
AcDbText
 73
     2
  0
ATTDEF
  5
3D
330
2C
100
AcDbEntity
  8
cart
 62
     7
100
AcDbText
 10
1505.224344815279
 20
81.01081338573044
 30
0.0
 40
20.0
  1

 51
15.0
  7
SIMPLEX_INCLINATO
 72
     1
 11
1505.224344815279
 21
91.01081338573044
 31
0.0
100
AcDbAttributeDefinition
  3
denominazione
  2
DENOMINAZIONE
 70
     0
 74
     2
  0
ATTDEF
  5
3E
330
2C
100
AcDbEntity
  8
cart
 62
     7
100
AcDbText
 10
968.0756107151299
 20
78.51081338573052
 30
0.0
 40
25.0
  1

 51
15.0
  7
SIMPLEX_INCLINATO
 72
     1
 11
968.0756107151299
 21
91.01081338573051
 31
0.0
100
AcDbAttributeDefinition
  3
codice
  2
COD
 70
     0
 74
     2
  0
HATCH
  5
3F
330
2C
100
AcDbEntity
  8
SIMB-RIELLO
100
AcDbHatch
 10
0.0
 20
0.0
 30
0.0
210
0.0
220
0.0
230
1.0
  2
SOLID
 70
     1
 71
     0
 91
        1
 92
        7
 72
     0
 73
     1
 93
        3
 10
-1957.052159532707
 20
2868.25627958519
 10
-1997.543646738102
 20
2868.256279585192
 10
-1957.052159532707
 20
2827.764792379798
 97
        0
 75
     0
 76
     1
 47
0.008020346143228
 98
        1
 10
-1967.460671456135
 20
2854.580977708611
  0
HATCH
  5
41
330
2C
100
AcDbEntity
  8
SIMB-RIELLO
100
AcDbHatch
 10
0.0
 20
0.0
 30
0.0
210
0.0
220
0.0
230
1.0
  2
SOLID
 70
     1
 71
     0
 91
        7
 92
        7
 72
     1
 73
     1
 93
       12
 10
-1920.63987212679
 20
2862.612483905122
 42
-0.4196614604291923
 10
-1915.599411995482
 20
2858.365809373689
 42
0.0
 10
-1915.599411995482
 20
2852.625080647511
 42
-0.2974902999392861
 10
-1920.63987212679
 20
2847.825938864906
 42
0.0
 10
-1909.86292386347
 20
2825.829624085704
 42
0.0
 10
-1899.475578787006
 20
2825.829624085706
 42
0.0
 10
-1910.252527050325
 20
2847.436819499612
 42
0.3186908506564043
 10
-1904.279750258229
 20
2858.850994417919
 42
0.375587932791305
 10
-1917.39382885874
 20
2870.451256376083
 42
0.0
 10
-1931.764875855245
 20
2870.451256376083
 42
0.0
 10
-1931.764875855245
 20
2825.829624085706
 42
0.0
 10
-1920.639872126792
 20
2825.829624085706
 42
0.0
 97
        0
 92
        7
 72
     0
 73
     1
 93
        4
 10
-1888.374151437298
 20
2870.451256376083
 10
-1899.475578787003
 20
2870.451256376083
 10
-1899.475578787004
 20
2825.829624085706
 10
-1888.374151437298
 20
2825.829624085706
 97
        0
 92
        7
 72
     0
 73
     1
 93
       12
 10
-1872.533382990082
 20
2844.3238622875
 10
-1862.665363162085
 20
2844.323862287499
 10
-1862.665363162085
 20
2852.495373865302
 10
-1872.533382990087
 20
2852.495373865304
 10
-1872.533382990087
 20
2862.223363885609
 10
-1861.886308920328
 20
2862.223363885611
 10
-1861.886308920332
 20
2870.451256376083
 10
-1883.050614686211
 20
2870.451256376083
 10
-1883.050614686211
 20
2825.829624085704
 10
-1860.717727557695
 20
2825.829624085706
 10
-1860.717727557695
 20
2834.984991632488
 10
-1872.533382990085
 20
2834.984991632489
 97
        0
 92
        7
 72
     0
 73
     1
 93
        6
 10
-1840.163736684425
 20
2835.244404869794
 10
-1847.56475141353
 20
2835.244404869794
 10
-1847.564751413531
 20
2870.451256376083
 10
-1858.341667856908
 20
2870.451256376083
 10
-1858.34166785691
 20
2825.829624085706
 10
-1840.163736684426
 20
2825.829624085706
 97
        0
 92
        7
 72
     0
 73
     1
 93
        6
 10
-1819.908326966341
 20
2835.374111324891
 10
-1827.309342263029
 20
2835.374111324891
 10
-1827.309342263029
 20
2870.451256376083
 10
-1837.956416332784
 20
2870.451256376083
 10
-1837.956416332784
 20
2825.829624085706
 10
-1819.908326966343
 20
2825.829624085706
 97
        0
 92
        7
 72
     1
 73
     1
 93
        8
 10
-1791.628807378223
 20
2837.19000300469
 42
0.0
 10
-1791.628807378223
 20
2859.758940257421
 42
0.2577399339603656
 10
-1800.543793970866
 20
2870.451256376083
 42
0.0
 10
-1810.993340373705
 20
2870.451256376083
 42
0.2577399339598106
 10
-1819.908326966343
 20
2859.758940257452
 42
0.0
 10
-1819.908326966341
 20
2837.190003004698
 42
0.3015054834347943
 10
-1808.755622508061
 20
2825.829624085706
 42
0.0
 10
-1802.781511836503
 20
2825.829624085706
 42
0.3015054834346608
 97
        0
 92
       22
 72
     1
 73
     1
 93
        4
 10
-1809.261252896588
 20
2838.616774992115
 42
0.0
 10
-1809.261252896588
 20
2858.591581507294
 42
-0.9070612246060122
 10
-1802.275881447977
 20
2858.591581507322
 42
0.0
 10
-1802.275881447977
 20
2838.616774992086
 42
-0.9070612246023383
 97
        0
 75
     0
 76
     1
 47
0.0163601992298996
 98
       12
 10
-1921.722484832816
 20
2855.300625145347
 10
-1893.18046301942
 20
2844.608563972256
 10
-1876.92736767449
 20
2835.10450963252
 10
-1855.917268315605
 20
2833.124498352629
 10
-1819.050490045369
 20
2831.144487072741
 10
-1924.497403840957
 20
2850.944600525855
 10
-1893.18046301942
 20
2839.856536965942
 10
-1880.495120117372
 20
2837.480523299231
 10
-1854.331600310953
 20
2832.728496292917
 10
-1831.339416513834
 20
2835.10450963252
 10
-1804.383062137507
 20
2830.352482626206
 10
-1804.383062137507
 20
2830.352482626206
  0
HATCH
  5
42
330
2C
100
AcDbEntity
  8
SIMB-RIELLO
 62
     7
100
AcDbHatch
 10
0.0
 20
0.0
 30
0.0
210
0.0
220
0.0
230
1.0
  2
SOLID
 70
     1
 71
     0
 91
        2
 92
       16
 93
        1
 72
     2
 10
-1977.297903135404
 20
2848.010535982494
 40
28.63180518326331
 50
0.0
 51
360.0
 73
     1
 97
        0
 92
        1
 93
        1
 72
     2
 10
-1977.297903135404
 20
2848.010535982494
 40
30.96831521445249
 50
0.0
 51
360.0
 73
     1
 97
        0
 75
     0
 76
     1
 98
        1
 10
-12299.26938929792
 20
-1334.586441311654
  0
HATCH
  5
43
330
2C
100
AcDbEntity
  8
SIMB-RIELLO
 62
     7
100
AcDbHatch
 10
0.0
 20
0.0
 30
0.0
210
0.0
220
0.0
230
1.0
  2
SOLID
 70
     1
 71
     0
 91
        2
 92
       16
 93
        1
 72
     2
 10
-1977.297903135404
 20
2848.010535982494
 40
32.11707291624153
 50
0.0
 51
360.0
 73
     1
 97
        0
 92
        1
 93
        1
 72
     2
 10
-1977.297903135404
 20
2848.010535982494
 40
33.78219760665425
 50
0.0
 51
360.0
 73
     1
 97
        0
 75
     0
 76
     1
 98
        1
 10
-12299.26938929792
 20
-1334.586441311654
  0
HATCH
  5
44
330
2C
100
AcDbEntity
  8
SIMB-RIELLO
 62
     7
100
AcDbHatch
 10
0.0
 20
0.0
 30
0.0
210
0.0
220
0.0
230
1.0
  2
SOLID
 70
     1
 71
     0
 91
        2
 92
       16
 93
        1
 72
     2
 10
-1977.297903135404
 20
2848.010535982494
 40
35.29055345577882
 50
0.0
 51
360.0
 73
     1
 97
        0
 92
        1
 93
        1
 72
     2
 10
-1977.297903135404
 20
2848.010535982494
 40
36.48518414786595
 50
0.0
 51
360.0
 73
     1
 97
        0
 75
     0
 76
     1
 98
        1
 10
-12299.26938929792
 20
-1334.586441311654
  0
HATCH
  5
45
330
2C
100
AcDbEntity
  8
SIMB-RIELLO
 62
     7
100
AcDbHatch
 10
0.0
 20
0.0
 30
0.0
210
0.0
220
0.0
230
1.0
  2
SOLID
 70
     1
 71
     0
 91
        2
 92
        1
 93
        1
 72
     2
 10
-1977.297903135404
 20
2848.010535982494
 40
39.25215794502382
 50
0.0
 51
360.0
 73
     1
 97
        0
 92
       16
 93
        1
 72
     2
 10
-1977.297903135404
 20
2848.010535982494
 40
38.59096830138609
 50
0.0
 51
360.0
 73
     1
 97
        0
 75
     0
 76
     1
 98
        1
 10
-12299.26938929792
 20
-1334.586441311654
  0
ENDBLK
  5
46
330
2C
100
AcDbEntity
  8
0
100
AcDbBlockEnd
  0
BLOCK
  5
4C
330
4B
100
AcDbEntity
  8
0
100
AcDbBlockBegin
  2
rl55-85mblu1
 70
     0
 10
0.0
 20
0.0
 30
0.0
  3
rl55-85mblu1
  1

  0
LINE
  5
4D
330
4B
100
AcDbEntity
  8
linea-spessa
100
AcDbLine
 10
-364.9999999999709
 20
-87.43227737743291
 30
0.0
 11
-364.9999999999709
 21
-124.5952790370793
 31
0.0
  0
LINE
  5
4E
330
4B
100
AcDbEntity
  8
linea-spessa
100
AcDbLine
 10
-364.9999999999709
 20
-87.43227737743291
 30
0.0
 11
-364.9999999999709
 21
150.7875306610949
 31
0.0
  0
LINE
  5
4F
330
4B
100
AcDbEntity
  8
linea-spessa
100
AcDbLine
 10
-364.9999999999709
 20
150.7875306610949
 30
0.0
 11
-416.0192178322758
 21
150.7875306610949
 31
0.0
  0
LINE
  5
50
330
4B
100
AcDbEntity
  8
linea-spessa
100
AcDbLine
 10
-416.0192178322758
 20
125.0
 30
0.0
 11
-416.0192178322758
 21
-97.74513758340617
 31
0.0
  0
LINE
  5
51
330
4B
100
AcDbEntity
  8
linea-spessa
100
AcDbLine
 10
-364.9999999999709
 20
-124.5952790370793
 30
0.0
 11
-379.0160802445898
 21
-124.5952790370793
 31
0.0
  0
LINE
  5
52
330
4B
100
AcDbEntity
  8
linea-spessa
100
AcDbLine
 10
-379.0160802445898
 20
-124.5952790370793
 30
0.0
 11
-379.0160802445898
 21
150.7875306610949
 31
0.0
  0
LINE
  5
53
330
4B
100
AcDbEntity
  8
linea-spessa
100
AcDbLine
 10
-379.0160802445898
 20
-97.74513758340617
 30
0.0
 11
-435.453894872975
 21
-97.74513758342074
 31
0.0
  0
LINE
  5
54
330
4B
100
AcDbEntity
  8
linea-spessa
100
AcDbLine
 10
-416.0192178322758
 20
145.3215874706802
 30
0.0
 11
-430.2785732770862
 21
145.3215874706802
 31
0.0
  0
LINE
  5
55
330
4B
100
AcDbEntity
  8
linea-spessa
100
AcDbLine
 10
-430.2785732770862
 20
145.3215874706802
 30
0.0
 11
-430.2785732770862
 21
133.098274708158
 31
0.0
  0
LINE
  5
56
330
4B
100
AcDbEntity
  8
linea-spessa
100
AcDbLine
 10
-430.2785732770862
 20
133.098274708158
 30
0.0
 11
-416.0192178322758
 21
133.098274708158
 31
0.0
  0
LINE
  5
57
330
4B
100
AcDbEntity
  8
linea-spessa
100
AcDbLine
 10
-416.0192178322758
 20
125.0
 30
0.0
 11
-526.6657677674084
 21
125.0
 31
0.0
  0
LINE
  5
58
330
4B
100
AcDbEntity
  8
linea-spessa
100
AcDbLine
 10
-529.6071118829713
 20
122.0796671769203
 30
0.0
 11
-804.4289012570224
 21
122.0796671769203
 31
0.0
  0
ARC
  5
59
330
4B
100
AcDbEntity
  8
linea-spessa
100
AcDbCircle
 10
-529.7455864867952
 20
125.160557783558
 30
0.0
 40
3.084000996429786
100
AcDbArc
 50
272.5735007075762
 51
357.0157454301645
  0
ARC
  5
5A
330
4B
100
AcDbEntity
  8
linea-spessa
100
AcDbCircle
 10
-788.9608138987969
 20
-134.8279702000436
 30
0.0
 40
257.3728732192677
100
AcDbArc
 50
93.4455477258295
 51
112.3660898903589
  0
ARC
  5
5B
330
4B
100
AcDbEntity
  8
linea-spessa
100
AcDbCircle
 10
-950.2696650455472
 20
-108.3354504245508
 30
0.0
 40
94.73033495441159
100
AcDbArc
 50
177.6802951121621
 51
259.578463473392
  0
LINE
  5
5C
330
4B
100
AcDbEntity
  8
linea-spessa
100
AcDbLine
 10
-967.4053255019243
 20
-201.5030708798295
 30
0.0
 11
-967.4053255020117
 21
-124.8616109058202
 31
0.0
  0
LINE
  5
5D
330
4B
100
AcDbEntity
  8
linea-spessa
100
AcDbLine
 10
-967.4053255019535
 20
-129.1120501169935
 30
0.0
 11
-892.1354743708798
 21
-129.1120501169935
 31
0.0
  0
LINE
  5
5E
330
4B
100
AcDbEntity
  8
linea-spessa
100
AcDbLine
 10
-871.3590913344523
 20
-120.0369015823526
 30
0.0
 11
-781.3944950494041
 21
-22.91279981937259
 31
0.0
  0
ARC
  5
5F
330
4B
100
AcDbEntity
  8
linea-spessa
100
AcDbCircle
 10
-761.9677529003529
 20
-44.10341805053758
 30
0.0
 40
28.74788012263336
100
AcDbArc
 50
92.41001806608101
 51
132.513398324375
  0
LINE
  5
60
330
4B
100
AcDbEntity
  8
linea-spessa
100
AcDbLine
 10
-763.1766112625191
 20
-15.38096563078579
 30
0.0
 11
-758.5791684966825
 21
-15.38096563078579
 31
0.0
  0
LINE
  5
61
330
4B
100
AcDbEntity
  8
linea-spessa
100
AcDbLine
 10
-613.2554760530766
 20
1.76341577876883
 30
0.0
 11
-587.0367465908929
 21
30.89531983275083
 31
0.0
  0
LINE
  5
62
330
4B
100
AcDbEntity
  8
linea-spessa
100
AcDbLine
 10
-573.8703720582707
 20
39.15077489784744
 30
0.0
 11
-529.5897524467727
 21
51.9849146202032
 31
0.0
  0
ARC
  5
63
330
4B
100
AcDbEntity
  8
linea-spessa
100
AcDbCircle
 10
-565.9866620508837
 20
11.95023232017411
 30
0.0
 40
28.32
100
AcDbArc
 50
106.1635173979595
 51
138.0127703206429
  0
LINE
  5
64
330
4B
100
AcDbEntity
  8
linea-spessa
100
AcDbLine
 10
-445.5481829634227
 20
53.1043720425223
 30
0.0
 11
-521.7060424393566
 21
53.1043720425223
 31
0.0
  0
ARC
  5
65
330
4B
100
AcDbEntity
  8
linea-spessa
100
AcDbCircle
 10
-521.7060424393566
 20
24.78437204252987
 30
0.0
 40
28.32
100
AcDbArc
 50
90.0
 51
106.1635173979595
  0
LINE
  5
66
330
4B
100
AcDbEntity
  8
linea-spessa
100
AcDbLine
 10
-435.453894872975
 20
57.35481125368096
 30
0.0
 11
-521.7060424393566
 21
57.35481125369552
 31
0.0
  0
LINE
  5
67
330
4B
100
AcDbEntity
  8
linea-spessa
100
AcDbLine
 10
-773.7092761961685
 20
-14.34446424334601
 30
0.0
 11
-758.5791684966825
 21
-9.959206811690819
 31
0.0
  0
ARC
  5
68
330
4B
100
AcDbEntity
  8
linea-spessa
100
AcDbCircle
 10
-565.9866620508837
 20
11.95023232017411
 30
0.0
 40
32.57043921116181
100
AcDbArc
 50
106.1635173979595
 51
138.0127703206429
  0
ARC
  5
69
330
4B
100
AcDbEntity
  8
linea-spessa
100
AcDbCircle
 10
-521.7060424393566
 20
24.78437204252987
 30
0.0
 40
32.57043921116181
100
AcDbArc
 50
90.0
 51
106.1635173979595
  0
LINE
  5
6A
330
4B
100
AcDbEntity
  8
linea-spessa
100
AcDbLine
 10
-613.2554760530766
 20
8.117170459474436
 30
0.0
 11
-590.196072322753
 21
33.73871470641461
 31
0.0
  0
LINE
  5
6B
330
4B
100
AcDbEntity
  8
linea-spessa
100
AcDbLine
 10
-763.1766112625191
 20
-11.13052641961258
 30
0.0
 11
-758.5791684966825
 21
-11.13052641961258
 31
0.0
  0
LINE
  5
6C
330
4B
100
AcDbEntity
  8
linea-spessa
100
AcDbLine
 10
-874.3553317572805
 20
-117.0158069324825
 30
0.0
 11
-786.5997952904726
 21
-22.29783026885707
 31
0.0
  0
ARC
  5
6D
330
4B
100
AcDbEntity
  8
linea-spessa
100
AcDbCircle
 10
-892.1354743708798
 20
-100.7920501169865
 30
0.0
 40
28.32
100
AcDbArc
 50
270.0
 51
317.1915240477742
  0
ARC
  5
6E
330
4B
100
AcDbEntity
  8
linea-spessa
100
AcDbCircle
 10
-892.1354743708798
 20
-100.7920501169865
 30
0.0
 40
24.0695607888382
100
AcDbArc
 50
270.0
 51
317.1915240477742
  0
LINE
  5
6F
330
4B
100
AcDbEntity
  8
linea-spessa
100
AcDbLine
 10
-1008.668228173075
 20
-124.8616109058202
 30
0.0
 11
-892.1354743708798
 21
-124.8616109058202
 31
0.0
  0
LINE
  5
70
330
4B
100
AcDbEntity
  8
linea-spessa
100
AcDbLine
 10
-435.453894872975
 20
77.71522261190694
 30
0.0
 11
-525.2006914452358
 21
77.71522261193604
 31
0.0
  0
LINE
  5
71
330
4B
100
AcDbEntity
  8
linea-spessa
100
AcDbLine
 10
-784.8044123500876
 20
3.638118726725224
 30
0.0
 11
-533.0844014526519
 21
76.59576518958783
 31
0.0
  0
ARC
  5
72
330
4B
100
AcDbEntity
  8
linea-spessa
100
AcDbCircle
 10
-525.2006914452358
 20
49.39522261192905
 30
0.0
 40
28.32
100
AcDbArc
 50
90.0
 51
106.1635173979595
  0
LINE
  5
73
330
4B
100
AcDbEntity
  8
linea-spessa
100
AcDbLine
 10
-882.1106018244464
 20
-95.42837609973503
 30
0.0
 11
-797.6949314443918
 21
-4.315247298771282
 31
0.0
  0
ARC
  5
74
330
4B
100
AcDbEntity
  8
linea-spessa
100
AcDbCircle
 10
-776.9207023426716
 20
-23.562423850919
 30
0.0
 40
28.32
100
AcDbArc
 50
106.1635173979595
 51
137.1851117400188
  0
LINE
  5
75
330
4B
100
AcDbEntity
  8
linea-spessa
100
AcDbLine
 10
-1044.922371719934
 20
-104.5011995476088
 30
0.0
 11
-902.8848309261375
 21
-104.5011995476088
 31
0.0
  0
ARC
  5
76
330
4B
100
AcDbEntity
  8
linea-spessa
100
AcDbCircle
 10
-902.8848309261375
 20
-76.18119954760186
 30
0.0
 40
28.32
100
AcDbArc
 50
270.0
 51
317.1851117400188
  0
ARC
  5
77
330
4B
100
AcDbEntity
  8
linea-spessa
100
AcDbCircle
 10
-765.8255661887815
 20
-41.54500682099024
 30
0.0
 40
28.32
100
AcDbArc
 50
106.1635173979595
 51
137.1851117400188
  0
LINE
  5
78
330
4B
100
AcDbEntity
  8
linea-spessa
100
AcDbLine
 10
-435.453894872975
 20
-97.74513758340617
 30
0.0
 11
-445.5481829634227
 21
-97.74513758340617
 31
0.0
  0
LINE
  5
79
330
4B
100
AcDbEntity
  8
linea-spessa
100
AcDbLine
 10
-445.5481829634227
 20
-97.74513758340617
 30
0.0
 11
-445.5481829634809
 21
-49.29458031686954
 31
0.0
  0
LINE
  5
7A
330
4B
100
AcDbEntity
  8
linea-spessa
100
AcDbLine
 10
-445.5481829634227
 20
125.0
 30
0.0
 11
-435.453894872975
 21
125.0
 31
0.0
  0
LINE
  5
7B
330
4B
100
AcDbEntity
  8
linea-spessa
100
AcDbLine
 10
-435.453894872975
 20
125.0
 30
0.0
 11
-435.453894872975
 21
-23.57628906762693
 31
0.0
  0
LINE
  5
7C
330
4B
100
AcDbEntity
  8
linea-spessa
100
AcDbLine
 10
-849.2716882916575
 20
-192.1713612634921
 30
0.0
 11
-849.2716882916575
 21
-399.2171405388217
 31
0.0
  0
LINE
  5
7D
330
4B
100
AcDbEntity
  8
linea-spessa
100
AcDbLine
 10
-607.6076882916677
 20
-192.1713612634921
 30
0.0
 11
-607.6076882916095
 21
-399.2171405388362
 31
0.0
  0
LINE
  5
7E
330
4B
100
AcDbEntity
  8
linea-spessa
100
AcDbLine
 10
-855.3215833308932
 20
-323.160494239768
 30
0.0
 11
-871.0005883502308
 21
-298.284075853313
 31
0.0
  0
LINE
  5
7F
330
4B
100
AcDbEntity
  8
linea-spessa
100
AcDbLine
 10
-871.0005883502017
 20
-192.1713612634921
 30
0.0
 11
-871.0005883502017
 21
-298.2840758533421
 31
0.0
  0
LINE
  5
80
330
4B
100
AcDbEntity
  8
linea-spessa
100
AcDbLine
 10
-855.3215833308932
 20
-192.1713612634921
 30
0.0
 11
-855.3215833308932
 21
-399.2171405388217
 31
0.0
  0
LINE
  5
81
330
4B
100
AcDbEntity
  8
linea-spessa
100
AcDbLine
 10
-601.5577932525193
 20
-188.8358189564897
 30
0.0
 11
-601.5577932524902
 21
-399.2171405388362
 31
0.0
  0
LINE
  5
82
330
4B
100
AcDbEntity
  8
linea-spessa
100
AcDbLine
 10
-445.5481829634227
 20
-73.95456480752909
 30
0.0
 11
-480.5071778758137
 21
-73.95456480752909
 31
0.0
  0
LINE
  5
83
330
4B
100
AcDbEntity
  8
linea-spessa
100
AcDbLine
 10
-484.5775254068721
 20
-219.7801204905118
 30
0.0
 11
-515.0809567519172
 21
-325.1867545079294
 31
0.0
  0
LINE
  5
84
330
4B
100
AcDbEntity
  8
linea-spessa
100
AcDbLine
 10
-551.6790299662679
 20
-325.1867545079294
 30
0.0
 11
-551.6790299662679
 21
-175.5847666329937
 31
0.0
  0
ARC
  5
85
330
4B
100
AcDbEntity
  8
linea-spessa
100
AcDbCircle
 10
-734.8116256435169
 20
-190.5255267674365
 30
0.0
 40
227.2143345594467
100
AcDbArc
 50
164.3185506013308
 51
237.9688608794664
  0
ARC
  5
86
330
4B
100
AcDbEntity
  8
linea-spessa
100
AcDbCircle
 10
-734.8116256435169
 20
-190.5255267674365
 30
0.0
 40
239.5296599355066
100
AcDbArc
 50
182.2682070569936
 51
239.793977148768
  0
CIRCLE
  5
87
330
4B
100
AcDbEntity
  8
linea-spessa
100
AcDbCircle
 10
-973.0714274977508
 20
-258.4666624075908
 30
0.0
 40
5.13917090430462
  0
ARC
  5
88
330
4B
100
AcDbEntity
  8
linea-spessa
100
AcDbCircle
 10
-973.0714274977508
 20
-258.4666624075908
 30
0.0
 40
8.91517090430462
100
AcDbArc
 50
163.7661862901341
 51
228.0654162635006
  0
LINE
  5
89
330
4B
100
AcDbEntity
  8
linea-spessa
100
AcDbLine
 10
-972.9342730408243
 20
-226.1053498388065
 30
0.0
 11
-981.6311404541774
 21
-255.974356977662
 31
0.0
  0
LINE
  5
8A
330
4B
100
AcDbEntity
  8
linea-spessa
100
AcDbLine
 10
-953.6608138337905
 20
-287.888203483395
 30
0.0
 11
-979.0292730680958
 21
-265.0987321005814
 31
0.0
  0
CIRCLE
  5
8B
330
4B
100
AcDbEntity
  8
linea-spessa
100
AcDbCircle
 10
-632.8232946258794
 20
-416.3177131422708
 30
0.0
 40
5.13917090430462
  0
ARC
  5
8C
330
4B
100
AcDbEntity
  8
linea-spessa
100
AcDbCircle
 10
-632.8232946258794
 20
-416.3177131422708
 30
0.0
 40
8.91517090430462
100
AcDbArc
 50
262.1586576335074
 51
326.4578876048346
  0
LINE
  5
8D
330
4B
100
AcDbEntity
  8
linea-spessa
100
AcDbLine
 10
-667.8223277401703
 20
-420.4970292524812
 30
0.0
 11
-634.039595149894
 21
-425.1495241280354
 31
0.0
  0
LINE
  5
8E
330
4B
100
AcDbEntity
  8
linea-spessa
100
AcDbLine
 10
-608.1957656774029
 20
-395.3035326157842
 30
0.0
 11
-625.3926786651718
 21
-421.243788527092
 31
0.0
  0
CIRCLE
  5
8F
330
4B
100
AcDbEntity
  8
linea-spessa
100
AcDbCircle
 10
-855.2451094861025
 20
-407.0422860753897
 30
0.0
 40
5.13917090430462
  0
ARC
  5
90
330
4B
100
AcDbEntity
  8
linea-spessa
100
AcDbCircle
 10
-855.2451094861025
 20
-407.0422860753897
 30
0.0
 40
8.91517090430462
100
AcDbArc
 50
208.7661862903685
 51
273.0654162626704
  0
LINE
  5
91
330
4B
100
AcDbEntity
  8
linea-spessa
100
AcDbLine
 10
-879.470996054937
 20
-381.4394459587493
 30
0.0
 11
-863.0600666329264
 21
-411.3325910816201
 31
0.0
  0
LINE
  5
92
330
4B
100
AcDbEntity
  8
linea-spessa
100
AcDbLine
 10
-820.7155617297102
 20
-414.1210807342576
 30
0.0
 11
-854.7683610369858
 21
-415.9447005326655
 31
0.0
  0
LINE
  5
93
330
4B
100
AcDbEntity
  8
linea-spessa
100
AcDbLine
 10
-481.4542338352476
 20
-79.48293808617745
 30
0.0
 11
-471.8913680954428
 21
-23.6603745965549
 31
0.0
  0
LINE
  5
94
330
4B
100
AcDbEntity
  8
linea-spessa
100
AcDbLine
 10
-564.3331263739091
 20
-186.1124350726313
 30
0.0
 11
-513.8033943641057
 21
-144.0738534303673
 31
0.0
  0
ARC
  5
95
330
4B
100
AcDbEntity
  8
linea-spessa
100
AcDbCircle
 10
-501.349041111971
 20
-117.4332866079348
 30
0.0
 40
101.8340593628576
100
AcDbArc
 50
74.88247411373645
 51
152.0730298196201
  0
ARC
  5
96
330
4B
100
AcDbEntity
  8
linea-spessa
100
AcDbCircle
 10
-570.3705720648577
 20
-178.8555177154921
 30
0.0
 40
9.440000000000001
100
AcDbArc
 50
221.6658717618362
 51
309.7590120303538
  0
LINE
  5
97
330
4B
100
AcDbEntity
  8
linea-spessa
100
AcDbLine
 10
-539.2048909498553
 20
-69.73973594928975
 30
0.0
 11
-546.2974390484159
 21
-61.86985332367476
 31
0.0
  0
LINE
  5
98
330
4B
100
AcDbEntity
  8
linea-spessa
100
AcDbLine
 10
-549.4585907940054
 20
-69.73973594928975
 30
0.0
 11
-556.5511388925951
 21
-61.86985332367476
 31
0.0
  0
LINE
  5
99
330
4B
100
AcDbEntity
  8
linea-spessa
100
AcDbLine
 10
-557.3528265703934
 20
-49.60280895986944
 30
0.0
 11
-563.0109471137693
 21
-54.70205808605533
 31
0.0
  0
LINE
  5
9A
330
4B
100
AcDbEntity
  8
linea-spessa
100
AcDbLine
 10
-519.1678086741013
 20
-69.73973594928975
 30
0.0
 11
-522.8002085808257
 21
-61.8698533236602
 31
0.0
  0
LINE
  5
9B
330
4B
100
AcDbEntity
  8
linea-spessa
100
AcDbLine
 10
-527.5568638319091
 20
-69.73973594928975
 30
0.0
 11
-531.1892637386044
 21
-61.8698533236602
 31
0.0
  0
LINE
  5
9C
330
4B
100
AcDbEntity
  8
linea-spessa
100
AcDbLine
 10
-534.7192165167943
 20
-36.04637686756905
 30
0.0
 11
-541.634973850887
 21
-39.2383935074904
 31
0.0
  0
LINE
  5
9D
330
4B
100
AcDbEntity
  8
linea-spessa
100
AcDbLine
 10
-503.8063259213522
 20
-69.75638021646592
 30
0.0
 11
-505.3384863659157
 21
-58.15916525419743
 31
0.0
  0
LINE
  5
9E
330
4B
100
AcDbEntity
  8
linea-spessa
100
AcDbLine
 10
-511.4915781000163
 20
-69.73973594928975
 30
0.0
 11
-512.5313038359745
 21
-61.86985332367476
 31
0.0
  0
LINE
  5
9F
330
4B
100
AcDbEntity
  8
linea-spessa
100
AcDbLine
 10
-509.0836217767791
 20
-29.81152021640446
 30
0.0
 11
-516.6348736036161
 21
-30.80915019854729
 31
0.0
  0
LINE
  5
A0
330
4B
100
AcDbEntity
  8
linea-spessa
100
AcDbLine
 10
-489.9245517464005
 20
-73.31349104264518
 30
0.0
 11
-483.6196410254051
 21
-36.52097268015495
 31
0.0
  0
LINE
  5
A1
330
4B
100
AcDbEntity
  8
linea-spessa
100
AcDbLine
 10
-497.1946018848684
 20
-70.64172090678766
 30
0.0
 11
-492.9385270277271
 21
-45.805253070459
 31
0.0
  0
LINE
  5
A2
330
4B
100
AcDbEntity
  8
linea-spessa
100
AcDbLine
 10
-482.7522233009804
 20
-31.45912740335916
 30
0.0
 11
-490.2596581674006
 21
-30.17262382374611
 31
0.0
  0
CIRCLE
  5
A3
330
4B
100
AcDbEntity
  8
linea-spessa
100
AcDbCircle
 10
-557.5430194342916
 20
-42.03637497519958
 30
0.0
 40
3.826633695565868
  0
CIRCLE
  5
A4
330
4B
100
AcDbEntity
  8
linea-spessa
100
AcDbCircle
 10
-532.6570922443352
 20
-28.76388141242205
 30
0.0
 40
3.826633695565868
  0
CIRCLE
  5
A5
330
4B
100
AcDbEntity
  8
linea-spessa
100
AcDbCircle
 10
-504.9546892966318
 20
-23.46809739086893
 30
0.0
 40
3.826633695565868
  0
LINE
  5
A6
330
4B
100
AcDbEntity
  8
linea-spessa
100
AcDbLine
 10
-484.5775254069012
 20
-128.7081447393575
 30
0.0
 11
-484.5775254068721
 21
-219.7801204905118
 31
0.0
  0
ARC
  5
A7
330
4B
100
AcDbEntity
  8
linea-spessa
100
AcDbCircle
 10
-728.4396882916626
 20
-192.1713612634921
 30
0.0
 40
120.832
100
AcDbArc
 50
116.8407265880583
 51
180.0
  0
ARC
  5
A8
330
4B
100
AcDbEntity
  8
linea-spessa
100
AcDbCircle
 10
-728.4396882916626
 20
-192.1713612634921
 30
0.0
 40
126.8818950392082
100
AcDbArc
 50
115.4664945986517
 51
180.0
  0
ARC
  5
A9
330
4B
100
AcDbEntity
  8
linea-spessa
100
AcDbCircle
 10
-728.4396882916626
 20
-192.1713612634921
 30
0.0
 40
142.5609000585456
100
AcDbArc
 50
104.0547847980291
 51
180.0
  0
LINE
  5
AA
330
4B
100
AcDbEntity
  8
linea-spessa
100
AcDbLine
 10
-445.5481829633936
 20
-25.41897466410592
 30
0.0
 11
-445.5481829634227
 21
57.35481125366641
 31
0.0
  0
LINE
  5
AB
330
4B
100
AcDbEntity
  8
linea-spessa
100
AcDbLine
 10
-477.2748718899093
 20
-55.08620347893156
 30
0.0
 11
-418.6434152646979
 21
-44.38318612330476
 31
0.0
  0
LINE
  5
AC
330
4B
100
AcDbEntity
  8
linea-spessa
100
AcDbLine
 10
-418.6434152646979
 20
-44.38318612330476
 30
0.0
 11
-422.8612894508987
 21
-21.27754224906675
 31
0.0
  0
LINE
  5
AD
330
4B
100
AcDbEntity
  8
linea-spessa
100
AcDbLine
 10
-473.0527499947929
 20
-30.43986063964258
 30
0.0
 11
-422.8612894508987
 21
-21.27754224906675
 31
0.0
  0
LINE
  5
AE
330
4B
100
AcDbEntity
  8
linea-spessa
100
AcDbLine
 10
-435.4538948730041
 20
-47.4518947203469
 30
0.0
 11
-435.453894872975
 21
-97.74513758340617
 31
0.0
  0
CIRCLE
  5
AF
330
4B
100
AcDbEntity
  8
linea-spessa
100
AcDbCircle
 10
-442.0424294245604
 20
-36.71681145296316
 30
0.0
 40
8.639702079658468
  0
CIRCLE
  5
B0
330
4B
100
AcDbEntity
  8
linea-spessa
100
AcDbCircle
 10
-442.0424294245604
 20
-36.71681145296316
 30
0.0
 40
5.299683032020997
  0
LINE
  5
B1
330
4B
100
AcDbEntity
  8
linea-spessa
100
AcDbLine
 10
-445.5481829634227
 20
-61.62332163759856
 30
0.0
 11
-478.3947341708699
 21
-61.62332163759856
 31
0.0
  0
LINE
  5
B2
330
4B
100
AcDbEntity
  8
linea-spessa
100
AcDbLine
 10
-483.6196410254051
 20
-36.52097268015495
 30
0.0
 11
-482.7522233009804
 21
-31.45912740335916
 31
0.0
  0
LINE
  5
B3
330
4B
100
AcDbEntity
  8
linea-spessa
100
AcDbLine
 10
-492.9385270277271
 20
-45.805253070459
 30
0.0
 11
-490.2596581674006
 21
-30.17262382374611
 31
0.0
  0
LINE
  5
B4
330
4B
100
AcDbEntity
  8
linea-spessa
100
AcDbLine
 10
-512.5313038359745
 20
-61.86985332367476
 30
0.0
 11
-516.6348736036161
 21
-30.80915019854729
 31
0.0
  0
LINE
  5
B5
330
4B
100
AcDbEntity
  8
linea-spessa
100
AcDbLine
 10
-505.3384863658866
 20
-58.15916525419743
 30
0.0
 11
-509.0836217767791
 21
-29.81152021640446
 31
0.0
  0
LINE
  5
B6
330
4B
100
AcDbEntity
  8
linea-spessa
100
AcDbLine
 10
-522.8002085808257
 20
-61.8698533236602
 30
0.0
 11
-534.7192165167943
 21
-36.04637686756905
 31
0.0
  0
LINE
  5
B7
330
4B
100
AcDbEntity
  8
linea-spessa
100
AcDbLine
 10
-531.1892637386044
 20
-61.8698533236602
 30
0.0
 11
-541.634973850887
 21
-39.2383935074904
 31
0.0
  0
LINE
  5
B8
330
4B
100
AcDbEntity
  8
linea-spessa
100
AcDbLine
 10
-546.2974390484159
 20
-61.86985332367476
 30
0.0
 11
-557.3528265703934
 21
-49.60280895986944
 31
0.0
  0
LINE
  5
B9
330
4B
100
AcDbEntity
  8
linea-spessa
100
AcDbLine
 10
-556.5511388925951
 20
-61.86985332367476
 30
0.0
 11
-563.0109471137693
 21
-54.70205808605533
 31
0.0
  0
ARC
  5
BA
330
4B
100
AcDbEntity
  8
linea-spessa
100
AcDbCircle
 10
-503.6142180052411
 20
4.041460603795712
 30
0.0
 40
11.49070600410085
100
AcDbArc
 50
11.53814450481753
 51
350.2583228842373
  0
LWPOLYLINE
  5
BB
330
4B
100
AcDbEntity
  8
linea-spessa
100
AcDbPolyline
 90
        4
 70
     0
 43
0.0
 10
-492.3557189593557
 20
6.339834747894201
 10
-476.89884576443
 20
6.339834747894201
 10
-476.89884576443
 20
2.09716031429707
 10
-492.2892005281173
 20
2.09716031429707
  0
CIRCLE
  5
BC
330
4B
100
AcDbEntity
  8
linea-spessa
100
AcDbCircle
 10
-821.7747834368783
 20
-95.8104259216634
 30
0.0
 40
3.643018654267344
  0
CIRCLE
  5
BD
330
4B
100
AcDbEntity
  8
linea-spessa
100
AcDbCircle
 10
-862.9186270000355
 20
-296.8316742193274
 30
0.0
 40
3.643018654267344
  0
LINE
  5
BE
330
4B
100
AcDbEntity
  8
linea-spessa
100
AcDbLine
 10
-607.6076882916968
 20
-399.2171405388362
 30
0.0
 11
-601.5577932524902
 21
-399.2171405388362
 31
0.0
  0
LINE
  5
BF
330
4B
100
AcDbEntity
  8
linea-spessa
100
AcDbLine
 10
-607.6076882916968
 20
-399.2171405388362
 30
0.0
 11
-611.5475872971583
 21
-372.9974280684983
 31
0.0
  0
LINE
  5
C0
330
4B
100
AcDbEntity
  8
linea-spessa
100
AcDbLine
 10
-611.5475872971583
 20
-372.9974280684983
 30
0.0
 11
-845.3317892861377
 21
-372.9974280684837
 31
0.0
  0
ARC
  5
C1
330
4B
100
AcDbEntity
  8
linea-spessa
100
AcDbCircle
 10
-734.8116256435169
 20
-190.5255267674365
 30
0.0
 40
239.5296599355066
100
AcDbArc
 50
303.8013047850735
 51
325.7925995090571
  0
ARC
  5
C2
330
4B
100
AcDbEntity
  8
linea-spessa
100
AcDbCircle
 10
-734.8116256435169
 20
-190.5255267674365
 30
0.0
 40
227.2143345594467
100
AcDbArc
 50
305.9067329501823
 51
323.7060221811896
  0
LINE
  5
C3
330
4B
100
AcDbEntity
  8
linea-spessa
100
AcDbLine
 10
-849.2716882916575
 20
-399.2171405388362
 30
0.0
 11
-849.2716882916575
 21
-365.4232288878266
 31
0.0
  0
LINE
  5
C4
330
4B
100
AcDbEntity
  8
linea-spessa
100
AcDbLine
 10
-849.2716882916575
 20
-399.2171405388362
 30
0.0
 11
-855.321583330835
 21
-399.2171405388362
 31
0.0
  0
LINE
  5
C5
330
4B
100
AcDbEntity
  8
linea-spessa
100
AcDbLine
 10
-849.2716882916575
 20
-399.2171405388362
 30
0.0
 11
-845.3317892861669
 21
-372.9974280684983
 31
0.0
  0
ARC
  5
C6
330
4B
100
AcDbEntity
  8
linea-spessa
100
AcDbCircle
 10
-734.8116256435169
 20
-190.5255267674365
 30
0.0
 40
239.5296599355066
100
AcDbArc
 50
240.6049051348193
 51
301.854972703512
  0
ARC
  5
C7
330
4B
100
AcDbEntity
  8
linea-spessa
100
AcDbCircle
 10
-734.8116256435169
 20
-190.5255267674365
 30
0.0
 40
227.2143345594467
100
AcDbArc
 50
240.2511032063502
 51
303.1999431899
  0
LINE
  5
C8
330
4B
100
AcDbEntity
  8
linea-spessa
100
AcDbLine
 10
-456.1311439896817
 20
19.70441450944054
 30
0.0
 11
-445.5481829634227
 21
19.70441450942599
 31
0.0
  0
LINE
  5
C9
330
4B
100
AcDbEntity
  8
linea-spessa
100
AcDbLine
 10
-456.1311439896817
 20
38.85608295210113
 30
0.0
 11
-445.5481829634227
 21
38.85608295211568
 31
0.0
  0
LINE
  5
CA
330
4B
100
AcDbEntity
  8
linea-spessa
100
AcDbLine
 10
-456.1311439897108
 20
34.06816584142507
 30
0.0
 11
-445.5481829634227
 21
34.06816584143963
 31
0.0
  0
LINE
  5
CB
330
4B
100
AcDbEntity
  8
linea-spessa
100
AcDbLine
 10
-456.1311439897108
 20
24.4923316201166
 30
0.0
 11
-445.5481829634227
 21
24.4923316201166
 31
0.0
  0
LINE
  5
CC
330
4B
100
AcDbEntity
  8
linea-spessa
100
AcDbLine
 10
-456.1311439896817
 20
19.70441450942599
 30
0.0
 11
-456.1311439896817
 21
38.85608295211568
 31
0.0
  0
LINE
  5
CD
330
4B
100
AcDbEntity
  8
linea-spessa
100
AcDbLine
 10
-416.0192178322758
 20
125.0
 30
0.0
 11
-416.0192178322468
 21
150.7875306610949
 31
0.0
  0
LINE
  5
CE
330
4B
100
AcDbEntity
  8
linea-spessa
100
AcDbLine
 10
-1023.785952114645
 20
-45.97043421946
 30
0.0
 11
-533.4778644315957
 21
96.13874490984017
 31
0.0
  0
LINE
  5
CF
330
4B
100
AcDbEntity
  8
linea-spessa
100
AcDbLine
 10
-526.6657677674374
 20
125.0000000000291
 30
0.0
 11
-526.6657677674084
 21
105.2055924357264
 31
0.0
  0
ARC
  5
D0
330
4B
100
AcDbEntity
  8
linea-spessa
100
AcDbCircle
 10
-536.1057677674107
 20
105.2055924357264
 30
0.0
 40
9.440000000000001
100
AcDbArc
 50
286.1635173979595
 51
0.0
  0
ARC
  5
D1
330
4B
100
AcDbEntity
  8
linea-spessa
100
AcDbCircle
 10
-1032.761882559891
 20
-43.27972193434834
 30
0.0
 40
3.084000996429786
100
AcDbArc
 50
263.449022319785
 51
330.9460287624115
  0
LINE
  5
D2
330
4B
100
AcDbEntity
  8
linea-spessa
100
AcDbLine
 10
-1033.113727530319
 20
-46.34358669357607
 30
0.0
 11
-1026.413855450431
 21
-46.34358669357607
 31
0.0
  0
ARC
  5
D3
330
4B
100
AcDbEntity
  8
linea-spessa
100
AcDbCircle
 10
-1026.413855450431
 20
-36.90358669357375
 30
0.0
 40
9.440000000000001
100
AcDbArc
 50
270.0
 51
286.1635173979595
  0
ARC
  5
D4
330
4B
100
AcDbEntity
  8
linea-spessa
100
AcDbCircle
 10
-890.8763202678237
 20
-105.5019112741865
 30
0.0
 40
154.0493018223283
100
AcDbArc
 50
157.4169603109656
 51
179.6278012228355
  0
LINE
  5
D5
330
4B
100
AcDbEntity
  8
linea-spessa
100
AcDbLine
 10
-830.7187629022518
 20
9.987483801902271
 30
0.0
 11
-890.4350294727482
 21
101.6964036872814
 31
0.0
  0
LINE
  5
D6
330
4B
100
AcDbEntity
  8
linea-spessa
100
AcDbLine
 10
-826.9281949827272
 20
11.08612873352831
 30
0.0
 11
-886.8971435129934
 21
103.1831035146897
 31
0.0
  0
ARC
  5
D7
330
4B
100
AcDbEntity
  8
linea-spessa
100
AcDbCircle
 10
-788.9608138987969
 20
-134.8279702000436
 30
0.0
 40
257.3728732192677
100
AcDbArc
 50
113.2204082739783
 51
159.5198025189051
  0
ARC
  5
D8
330
4B
100
AcDbEntity
  8
linea-spessa
100
AcDbCircle
 10
-888.8840591662447
 20
102.9584611750615
 30
0.0
 40
1.999574453258063
100
AcDbArc
 50
219.1359816315997
 51
6.450516530523181
  0
LINE
  5
D9
330
4B
100
AcDbEntity
  8
linea-spessa
100
AcDbLine
 10
-379.0160802445898
 20
125.0
 30
0.0
 11
-416.0192178322758
 21
125.0
 31
0.0
  0
LINE
  5
DA
330
4B
100
AcDbEntity
  8
linea-spessa
100
AcDbLine
 10
-43.46995122139924
 20
94.50000000000001
 30
0.0
 11
-43.46995122139924
 21
-94.50000000000001
 31
0.0
  0
LINE
  5
DB
330
4B
100
AcDbEntity
  8
linea-spessa
100
AcDbLine
 10
-30.64152409665985
 20
81.67157287526061
 30
0.0
 11
-30.64152409665985
 21
-81.67157287526061
 31
0.0
  0
LINE
  5
DC
330
4B
100
AcDbEntity
  8
linea-spessa
100
AcDbLine
 10
-364.9999999999709
 20
-94.50000000000001
 30
0.0
 11
-43.46995122139924
 21
-94.50000000000001
 31
0.0
  0
LINE
  5
DD
330
4B
100
AcDbEntity
  8
linea-spessa
100
AcDbLine
 10
-30.64152409665985
 20
-81.67157287526061
 30
0.0
 11
-43.46995122139924
 21
-94.50000000000001
 31
0.0
  0
LINE
  5
DE
330
4B
100
AcDbEntity
  8
linea-spessa
100
AcDbLine
 10
-364.9999999999709
 20
94.50000000000001
 30
0.0
 11
-43.46995122139924
 21
94.50000000000001
 31
0.0
  0
LINE
  5
DF
330
4B
100
AcDbEntity
  8
linea-spessa
100
AcDbLine
 10
-43.46995122139924
 20
94.50000000000001
 30
0.0
 11
-30.64152409665985
 21
81.67157287526061
 31
0.0
  0
LINE
  5
E0
330
4B
100
AcDbEntity
  8
linea-spessa
100
AcDbLine
 10
-30.64152409665985
 20
77.57116053660865
 30
0.0
 11
-11.39888340953621
 21
58.32851984949957
 31
0.0
  0
LINE
  5
E1
330
4B
100
AcDbEntity
  8
linea-spessa
100
AcDbLine
 10
-30.64152409665985
 20
-77.57116053659411
 30
0.0
 11
-11.39888340953621
 21
-58.32851984948502
 31
0.0
  0
LINE
  5
E2
330
4B
100
AcDbEntity
  8
linea-spessa
100
AcDbLine
 10
-11.39888340953621
 20
58.32851984949957
 30
0.0
 11
0.0000000000291038
 21
58.32851984949957
 31
0.0
  0
LINE
  5
E3
330
4B
100
AcDbEntity
  8
linea-spessa
100
AcDbLine
 10
0.0000000000291038
 20
58.32851984949957
 30
0.0
 11
0.0
 21
-58.32851984949957
 31
0.0
  0
LINE
  5
E4
330
4B
100
AcDbEntity
  8
linea-spessa
100
AcDbLine
 10
0.0
 20
-58.32851984949957
 30
0.0
 11
-11.39888340953621
 21
-58.32851984948502
 31
0.0
  0
LINE
  5
E5
330
4B
100
AcDbEntity
  8
linea-spessa
100
AcDbLine
 10
-515.0809567519172
 20
-325.1867545079294
 30
0.0
 11
-551.6790299662679
 21
-325.1867545079294
 31
0.0
  0
ARC
  5
E6
330
4B
100
AcDbEntity
  8
linea-spessa
100
AcDbCircle
 10
-475.8339360867103
 20
-22.98498016796657
 30
0.0
 40
4.0
100
AcDbArc
 50
350.2791186024579
 51
74.88247411373645
  0
LINE
  5
E7
330
4B
100
AcDbEntity
  8
linea-spessa
100
AcDbLine
 10
-601.557793252432
 20
-323.160494239768
 30
0.0
 11
-585.8787882330943
 21
-298.284075853313
 31
0.0
  0
LINE
  5
E8
330
4B
100
AcDbEntity
  8
linea-spessa
100
AcDbLine
 10
-585.8787882331235
 20
-180.8382360312825
 30
0.0
 11
-585.8787882331235
 21
-298.2840758533421
 31
0.0
  0
CIRCLE
  5
E9
330
4B
100
AcDbEntity
  8
linea-spessa
100
AcDbCircle
 10
-593.9607495832897
 20
-296.8316742193274
 30
0.0
 40
3.643018654267344
  0
CIRCLE
  5
EA
330
4B
100
AcDbEntity
  8
linea-spessa
100
AcDbCircle
 10
-728.4396882916626
 20
-189.8978402301145
 30
0.0
 40
22.13806515978649
  0
CIRCLE
  5
EB
330
4B
100
AcDbEntity
  8
linea-spessa
100
AcDbCircle
 10
-728.4396882916626
 20
-189.8978402301145
 30
0.0
 40
44.27604940117453
  0
ARC
  5
EC
330
4B
100
AcDbEntity
  8
linea-spessa
100
AcDbCircle
 10
-728.4396882916626
 20
-189.8978402301145
 30
0.0
 40
33.20705728048051
100
AcDbArc
 50
257.4814407420037
 51
282.5185592579962
  0
CIRCLE
  5
ED
330
4B
100
AcDbEntity
  8
linea-spessa
100
AcDbCircle
 10
-741.1474789504718
 20
-159.2185196737555
 30
0.0
 40
5.777655903919367
  0
CIRCLE
  5
EE
330
4B
100
AcDbEntity
  8
linea-spessa
100
AcDbCircle
 10
-759.119008848007
 20
-177.1900495713198
 30
0.0
 40
5.777655903919367
  0
CIRCLE
  5
EF
330
4B
100
AcDbEntity
  8
linea-spessa
100
AcDbCircle
 10
-759.1190088479488
 20
-202.6056308889674
 30
0.0
 40
5.777655903919367
  0
CIRCLE
  5
F0
330
4B
100
AcDbEntity
  8
linea-spessa
100
AcDbCircle
 10
-741.1474789503845
 20
-220.5771607864735
 30
0.0
 40
5.777655903919367
  0
CIRCLE
  5
F1
330
4B
100
AcDbEntity
  8
linea-spessa
100
AcDbCircle
 10
-715.731897632766
 20
-220.5771607864881
 30
0.0
 40
5.777655903919367
  0
CIRCLE
  5
F2
330
4B
100
AcDbEntity
  8
linea-spessa
100
AcDbCircle
 10
-697.7603677352017
 20
-202.6056308889529
 30
0.0
 40
5.777655903919367
  0
CIRCLE
  5
F3
330
4B
100
AcDbEntity
  8
linea-spessa
100
AcDbCircle
 10
-697.7603677352599
 20
-177.1900495712034
 30
0.0
 40
5.777655903919367
  0
CIRCLE
  5
F4
330
4B
100
AcDbEntity
  8
linea-spessa
100
AcDbCircle
 10
-715.731897632766
 20
-159.2185196736973
 30
0.0
 40
5.777655903919367
  0
ARC
  5
F5
330
4B
100
AcDbEntity
  8
linea-spessa
100
AcDbCircle
 10
-769.2439819634601
 20
-189.8978402301145
 30
0.0
 40
13.69781964034093
100
AcDbArc
 50
95.53119466740742
 51
264.4688053325926
  0
ARC
  5
F6
330
4B
100
AcDbEntity
  8
linea-spessa
100
AcDbCircle
 10
-769.2439819634601
 20
-189.8978402301145
 30
0.0
 40
6.619450197686091
100
AcDbArc
 50
117.7541025350545
 51
242.2458974649455
  0
ARC
  5
F7
330
4B
100
AcDbEntity
  8
linea-spessa
100
AcDbCircle
 10
-687.635394619865
 20
-189.8978402301145
 30
0.0
 40
13.69781964034093
100
AcDbArc
 50
275.5311946674074
 51
84.46880533259259
  0
ARC
  5
F8
330
4B
100
AcDbEntity
  8
linea-spessa
100
AcDbCircle
 10
-687.635394619865
 20
-189.8978402301145
 30
0.0
 40
6.619450197686091
100
AcDbArc
 50
297.7541025350545
 51
62.24589746494546
  0
LINE
  5
F9
330
4B
100
AcDbEntity
  8
linea-spessa
100
AcDbLine
 10
-757.4631264910276
 20
-223.334475612035
 30
0.0
 11
-757.4631264910276
 21
-266.6747718851984
 31
0.0
  0
LINE
  5
FA
330
4B
100
AcDbEntity
  8
linea-spessa
100
AcDbLine
 10
-757.4631264910276
 20
-266.6747718851984
 30
0.0
 11
-699.4162500923266
 21
-266.674771885213
 31
0.0
  0
LINE
  5
FB
330
4B
100
AcDbEntity
  8
linea-spessa
100
AcDbLine
 10
-699.4162500923266
 20
-223.334475612035
 30
0.0
 11
-699.4162500923266
 21
-266.674771885213
 31
0.0
  0
ARC
  5
FC
330
4B
100
AcDbEntity
  8
linea-spessa
100
AcDbCircle
 10
-728.4396882916626
 20
-189.8978402301145
 30
0.0
 40
33.20705728048051
100
AcDbArc
 50
212.4814407421116
 51
237.5185592585917
  0
ARC
  5
FD
330
4B
100
AcDbEntity
  8
linea-spessa
100
AcDbCircle
 10
-728.4396882916626
 20
-189.8978402301145
 30
0.0
 40
33.20705728048051
100
AcDbArc
 50
167.481440741823
 51
192.5185592581769
  0
ARC
  5
FE
330
4B
100
AcDbEntity
  8
linea-spessa
100
AcDbCircle
 10
-728.4396882916626
 20
-189.8978402301145
 30
0.0
 40
33.20705728048051
100
AcDbArc
 50
122.4814407428149
 51
147.5185592578883
  0
ARC
  5
FF
330
4B
100
AcDbEntity
  8
linea-spessa
100
AcDbCircle
 10
-728.4396882916626
 20
-189.8978402301145
 30
0.0
 40
33.20705728048051
100
AcDbArc
 50
77.48144074200375
 51
102.5185592579962
  0
ARC
  5
100
330
4B
100
AcDbEntity
  8
linea-spessa
100
AcDbCircle
 10
-728.4396882916626
 20
-189.8978402301145
 30
0.0
 40
33.20705728048051
100
AcDbArc
 50
32.48144074211163
 51
57.51855925718503
  0
ARC
  5
101
330
4B
100
AcDbEntity
  8
linea-spessa
100
AcDbCircle
 10
-728.4396882916626
 20
-189.8978402301145
 30
0.0
 40
33.20705728048051
100
AcDbArc
 50
347.481440741823
 51
12.51855925817697
  0
ARC
  5
102
330
4B
100
AcDbEntity
  8
linea-spessa
100
AcDbCircle
 10
-728.4396882916626
 20
-189.8978402301145
 30
0.0
 40
33.20705728048051
100
AcDbArc
 50
302.4814407428149
 51
327.5185592578883
  0
LINE
  5
103
330
4B
100
AcDbEntity
  8
linea-spessa
100
AcDbLine
 10
-728.4396882916626
 20
-145.62179082894
 30
0.0
 11
-777.5855060918547
 21
-145.62179082894
 31
0.0
  0
LINE
  5
104
330
4B
100
AcDbEntity
  8
linea-spessa
100
AcDbLine
 10
-777.5855060918547
 20
-145.62179082894
 30
0.0
 11
-777.5855060918547
 21
-174.6193911301525
 31
0.0
  0
LINE
  5
105
330
4B
100
AcDbEntity
  8
linea-spessa
100
AcDbLine
 10
-777.5855060918547
 20
-174.6193911301525
 30
0.0
 11
-769.9961263449222
 21
-174.6193911301525
 31
0.0
  0
LINE
  5
106
330
4B
100
AcDbEntity
  8
linea-spessa
100
AcDbLine
 10
-728.4396882916626
 20
-145.62179082894
 30
0.0
 11
-676.4488735981285
 21
-145.62179082894
 31
0.0
  0
LINE
  5
107
330
4B
100
AcDbEntity
  8
linea-spessa
100
AcDbLine
 10
-676.4488735981285
 20
-145.62179082894
 30
0.0
 11
-676.4488735981285
 21
-174.6193911301525
 31
0.0
  0
LINE
  5
108
330
4B
100
AcDbEntity
  8
linea-spessa
100
AcDbLine
 10
-676.4488735981285
 20
-174.6193911301525
 30
0.0
 11
-686.8832502384029
 21
-174.6193911301525
 31
0.0
  0
LINE
  5
109
330
4B
100
AcDbEntity
  8
linea-spessa
100
AcDbLine
 10
-676.4488735981285
 20
-145.62179082894
 30
0.0
 11
-668.9534335276111
 21
-145.62179082894
 31
0.0
  0
LINE
  5
10A
330
4B
100
AcDbEntity
  8
linea-spessa
100
AcDbLine
 10
-668.9534335276111
 20
-145.62179082894
 30
0.0
 11
-668.9534335276403
 21
-174.6193911301525
 31
0.0
  0
LINE
  5
10B
330
4B
100
AcDbEntity
  8
linea-spessa
100
AcDbLine
 10
-668.9534335276403
 20
-174.6193911301525
 30
0.0
 11
-676.4488735981285
 21
-174.6193911301525
 31
0.0
  0
LINE
  5
10C
330
4B
100
AcDbEntity
  8
linea-spessa
100
AcDbLine
 10
-668.9534335276403
 20
-167.4192703708977
 30
0.0
 11
-676.4488735981577
 21
-167.4192703708977
 31
0.0
  0
LINE
  5
10D
330
4B
100
AcDbEntity
  8
linea-spessa
100
AcDbLine
 10
-668.9534335276403
 20
-152.8219115881802
 30
0.0
 11
-676.4488735981577
 21
-152.8219115881511
 31
0.0
  0
LWPOLYLINE
  5
10E
330
4B
100
AcDbEntity
  8
linea-spessa
100
AcDbPolyline
 90
        3
 70
     0
 43
0.0
 10
-790.4127752742206
 20
-147.7412464704976
 10
-782.6500546407769
 20
-147.7412464704976
 10
-782.6500546407769
 20
-158.1032350457389
  0
LINE
  5
10F
330
4B
100
AcDbEntity
  8
linea-spessa
100
AcDbLine
 10
-777.5855060918547
 20
-150.6478764742496
 30
0.0
 11
-782.6500546407769
 21
-150.6478764742496
 31
0.0
  0
LINE
  5
110
330
4B
100
AcDbEntity
  8
linea-spessa
100
AcDbLine
 10
-777.5855060918547
 20
-169.5933054848137
 30
0.0
 11
-782.6500546407769
 21
-169.5933054848137
 31
0.0
  0
LINE
  5
111
330
4B
100
AcDbEntity
  8
linea-spessa
100
AcDbLine
 10
-816.2522479760809
 20
-152.609015232636
 30
0.0
 11
-821.1576274145045
 21
-152.609015232636
 31
0.0
  0
LINE
  5
112
330
4B
100
AcDbEntity
  8
linea-spessa
100
AcDbLine
 10
-821.1576274145045
 20
-152.609015232636
 30
0.0
 11
-821.1576274145045
 21
-167.6321667264419
 31
0.0
  0
LINE
  5
113
330
4B
100
AcDbEntity
  8
linea-spessa
100
AcDbLine
 10
-816.2522479760809
 20
-167.6321667264419
 30
0.0
 11
-821.1576274145045
 21
-167.6321667264419
 31
0.0
  0
CIRCLE
  5
114
330
4B
100
AcDbEntity
  8
linea-spessa
100
AcDbCircle
 10
-796.140059436293
 20
-160.1205909795389
 30
0.0
 40
13.64001298924268
  0
LWPOLYLINE
  5
115
330
4B
100
AcDbEntity
  8
linea-spessa
100
AcDbPolyline
 90
        5
 70
     0
 43
0.0
 10
-782.6500546407769
 20
-162.1379469133389
 10
-782.6500546407769
 20
-172.4999354885803
 10
-816.2522479760809
 20
-172.4999354885803
 10
-816.2522479760809
 20
-147.7412464704976
 10
-801.8673435983656
 20
-147.7412464704976
  0
LWPOLYLINE
  5
116
330
4B
100
AcDbEntity
  8
linea-spessa
100
AcDbPolyline
 90
        4
 70
     1
 43
0.0
 10
-785.7577167961571
 20
-229.6225523394969
 10
-778.091755645175
 20
-229.6225523394969
 10
-778.091755645175
 20
-241.4635061599402
 10
-785.7577167961571
 20
-241.4635061599402
  0
LWPOLYLINE
  5
117
330
4B
100
AcDbEntity
  8
linea-spessa
100
AcDbPolyline
 90
        4
 70
     1
 43
0.0
 10
-778.091755645175
 20
-224.5146986336477
 10
-767.6380405131204
 20
-224.5146986336477
 10
-767.6380405131204
 20
-246.5713598657749
 10
-778.091755645175
 20
-246.5713598657749
  0
LINE
  5
118
330
4B
100
AcDbEntity
  8
linea-spessa
100
AcDbLine
 10
-767.6380405131204
 20
-246.5713598657749
 30
0.0
 11
-767.6380405131204
 21
-255.9085764815391
 31
0.0
  0
LINE
  5
119
330
4B
100
AcDbEntity
  8
linea-spessa
100
AcDbLine
 10
-767.6380405131204
 20
-255.9085764815391
 30
0.0
 11
-757.4631264910276
 21
-255.9085764815391
 31
0.0
  0
LINE
  5
11A
330
4B
100
AcDbEntity
  8
linea-spessa
100
AcDbLine
 10
-767.6380405131204
 20
-224.5146986336477
 30
0.0
 11
-767.6380405131204
 21
-215.1774820178835
 31
0.0
  0
LINE
  5
11B
330
4B
100
AcDbEntity
  8
linea-spessa
100
AcDbLine
 10
-767.6380405131204
 20
-215.1774820178835
 30
0.0
 11
-764.7894924404681
 21
-215.1774820178835
 31
0.0
  0
LINE
  5
11C
330
4B
100
AcDbEntity
  8
linea-spessa
100
AcDbLine
 10
-689.241336070263
 20
-255.9085764815391
 30
0.0
 11
-699.4162500923557
 21
-255.9085764815391
 31
0.0
  0
LINE
  5
11D
330
4B
100
AcDbEntity
  8
linea-spessa
100
AcDbLine
 10
-689.241336070263
 20
-255.9085764815391
 30
0.0
 11
-689.241336070263
 21
-215.1774820178835
 31
0.0
  0
LINE
  5
11E
330
4B
100
AcDbEntity
  8
linea-spessa
100
AcDbLine
 10
-689.241336070263
 20
-215.1774820178835
 30
0.0
 11
-692.0898841429152
 21
-215.1774820178835
 31
0.0
  0
LINE
  5
11F
330
4B
100
AcDbEntity
  8
linea-spessa
100
AcDbLine
 10
-658.5650526055542
 20
-235.5430292497185
 30
0.0
 11
-658.5650526055542
 21
-227.2174142261356
 31
0.0
  0
LINE
  5
120
330
4B
100
AcDbEntity
  8
linea-spessa
100
AcDbLine
 10
-658.5650526055542
 20
-227.2174142261356
 30
0.0
 11
-689.241336070263
 21
-227.2174142261356
 31
0.0
  0
LINE
  5
121
330
4B
100
AcDbEntity
  8
linea-spessa
100
AcDbLine
 10
-658.5650526055542
 20
-235.5430292497185
 30
0.0
 11
-658.5650526055542
 21
-243.8686442733015
 31
0.0
  0
LINE
  5
122
330
4B
100
AcDbEntity
  8
linea-spessa
100
AcDbLine
 10
-658.5650526055542
 20
-243.8686442733015
 30
0.0
 11
-689.241336070263
 21
-243.8686442733015
 31
0.0
  0
LINE
  5
123
330
4B
100
AcDbEntity
  8
linea-spessa
100
AcDbLine
 10
-665.7829732406534
 20
-243.8686442733015
 30
0.0
 11
-665.7829732406534
 21
-267.987106774759
 31
0.0
  0
LINE
  5
124
330
4B
100
AcDbEntity
  8
linea-spessa
100
AcDbLine
 10
-665.7829732406534
 20
-267.987106774759
 30
0.0
 11
-682.5052703296533
 21
-267.987106774759
 31
0.0
  0
LINE
  5
125
330
4B
100
AcDbEntity
  8
linea-spessa
100
AcDbLine
 10
-682.5052703296533
 20
-267.987106774759
 30
0.0
 11
-682.5052703296533
 21
-243.8686442733015
 31
0.0
  0
LINE
  5
126
330
4B
100
AcDbEntity
  8
linea-spessa
100
AcDbLine
 10
-665.7829732406534
 20
-257.0038072578463
 30
0.0
 11
-682.5052703296533
 21
-257.0038072578463
 31
0.0
  0
LINE
  5
127
330
4B
100
AcDbEntity
  8
linea-spessa
100
AcDbLine
 10
-665.7829732406534
 20
-260.9093346622685
 30
0.0
 11
-682.5052703296533
 21
-260.9093346622685
 31
0.0
  0
LINE
  5
128
330
4B
100
AcDbEntity
  8
linea-spessa
100
AcDbLine
 10
-669.5483521224814
 20
-227.1818807052186
 30
0.0
 11
-669.5483521224814
 21
-243.9041777942184
 31
0.0
  0
LINE
  5
129
330
4B
100
AcDbEntity
  8
linea-spessa
100
AcDbLine
 10
-665.6428247180592
 20
-227.1818807052186
 30
0.0
 11
-665.6428247180592
 21
-243.9041777942184
 31
0.0
  0
LWPOLYLINE
  5
12A
330
4B
100
AcDbEntity
  8
linea-spessa
100
AcDbPolyline
 90
        4
 70
     1
 43
0.0
 10
-755.724631117977
 20
-266.6747718851984
 10
-707.0368773816444
 20
-266.6747718851984
 10
-707.0368773816444
 20
-299.1240281889477
 10
-755.724631117977
 20
-299.1240281889477
  0
LWPOLYLINE
  5
12B
330
4B
100
AcDbEntity
  8
linea-spessa
100
AcDbPolyline
 90
        4
 70
     1
 43
0.0
 10
-741.9821053739578
 20
-299.1240281889477
 10
-712.926496767468
 20
-299.1240281889477
 10
-712.926496767468
 20
-307.9536031146272
 10
-741.9821053739578
 20
-307.9536031146272
  0
CIRCLE
  5
12C
330
4B
100
AcDbEntity
  8
linea-spessa
100
AcDbCircle
 10
-712.6221673604159
 20
-257.8057087719499
 30
0.0
 40
4.971465713722864
  0
LINE
  5
12D
330
4B
100
AcDbEntity
  8
linea-spessa
100
AcDbLine
 10
-767.6380405131204
 20
-221.7861700660869
 30
0.0
 11
-778.9967727866605
 21
-221.7861700660724
 31
0.0
  0
LINE
  5
12E
330
4B
100
AcDbEntity
  8
linea-spessa
100
AcDbLine
 10
-782.9967727866605
 20
-217.7861700660724
 30
0.0
 11
-782.9967727866897
 21
-172.4999354885803
 31
0.0
  0
ARC
  5
12F
330
4B
100
AcDbEntity
  8
linea-spessa
100
AcDbCircle
 10
-778.9967727866605
 20
-217.7861700660724
 30
0.0
 40
4.0
100
AcDbArc
 50
180.0
 51
270.0
  0
LINE
  5
130
330
4B
100
AcDbEntity
  8
linea-spessa
100
AcDbLine
 10
-782.9967727866314
 20
-73.7397359492752
 30
0.0
 11
-782.9967727866897
 21
-147.741246470483
 31
0.0
  0
LINE
  5
131
330
4B
100
AcDbEntity
  8
linea-spessa
100
AcDbLine
 10
-778.9967727866314
 20
-69.7397359492752
 30
0.0
 11
-675.5530451658706
 21
-69.7397359492752
 31
0.0
  0
ARC
  5
132
330
4B
100
AcDbEntity
  8
linea-spessa
100
AcDbCircle
 10
-778.9967727866314
 20
-73.7397359492752
 30
0.0
 40
4.0
100
AcDbArc
 50
90.0
 51
180.0
  0
LINE
  5
133
330
4B
100
AcDbEntity
  8
linea-spessa
100
AcDbLine
 10
-689.2413360702049
 20
-221.7861700660869
 30
0.0
 11
-667.1166332460124
 21
-221.7861700660433
 31
0.0
  0
LINE
  5
134
330
4B
100
AcDbEntity
  8
linea-spessa
100
AcDbLine
 10
-665.3378335282322
 20
-221.3688885260926
 30
0.0
 11
-486.8140362862322
 21
-130.3070596154139
 31
0.0
  0
ARC
  5
135
330
4B
100
AcDbEntity
  8
linea-spessa
100
AcDbCircle
 10
-667.1166332460124
 20
-217.7861700660433
 30
0.0
 40
4.0
100
AcDbArc
 50
270.0
 51
296.4041419386418
  0
LINE
  5
136
330
4B
100
AcDbEntity
  8
linea-spessa
100
AcDbLine
 10
-771.7418984140095
 20
-69.7397359492752
 30
0.0
 11
-771.7418984140095
 21
-119.4081077518494
 31
0.0
  0
LINE
  5
137
330
4B
100
AcDbEntity
  8
linea-spessa
100
AcDbLine
 10
-771.7418984140095
 20
-119.4081077518494
 30
0.0
 11
-616.7890786126663
 21
-119.4081077518494
 31
0.0
  0
LINE
  5
138
330
4B
100
AcDbEntity
  8
linea-spessa
100
AcDbLine
 10
-616.7890786126663
 20
-119.4081077518494
 30
0.0
 11
-616.7890786126372
 21
-69.7397359492752
 31
0.0
  0
LWPOLYLINE
  5
139
330
4B
100
AcDbEntity
  8
linea-spessa
100
AcDbPolyline
 90
        4
 70
     1
 43
0.0
 10
-758.5791684966825
 20
-7.578693394432775
 10
-724.5945103867561
 20
-7.578693394432775
 10
-724.5945103867561
 20
-60.20706089686427
 10
-758.5791684966825
 20
-60.20706089686427
  0
LWPOLYLINE
  5
13A
330
4B
100
AcDbEntity
  8
linea-spessa
100
AcDbPolyline
 90
        5
 70
     0
 43
0.0
 10
-682.0203962942177
 20
-47.93637017605942
 10
-682.0203962942177
 20
-60.20706089686427
 10
-716.0050544041442
 20
-60.20706089686427
 10
-716.0050544041442
 20
-7.578693394432775
 10
-710.6947959716781
 20
-7.578693394432775
  0
LINE
  5
13B
330
4B
100
AcDbEntity
  8
linea-spessa
100
AcDbLine
 10
-753.7241483292018
 20
-60.20706089686427
 30
0.0
 11
-753.724148329231
 21
-69.7397359492752
 31
0.0
  0
LINE
  5
13C
330
4B
100
AcDbEntity
  8
linea-spessa
100
AcDbLine
 10
-729.449530554266
 20
-60.20706089686427
 30
0.0
 11
-729.4495305542368
 21
-69.7397359492752
 31
0.0
  0
LINE
  5
13D
330
4B
100
AcDbEntity
  8
linea-spessa
100
AcDbLine
 10
-711.1500342366343
 20
-60.20706089686427
 30
0.0
 11
-711.1500342366634
 21
-69.7397359492752
 31
0.0
  0
LINE
  5
13E
330
4B
100
AcDbEntity
  8
linea-spessa
100
AcDbLine
 10
-686.8754164616984
 20
-60.20706089686427
 30
0.0
 11
-686.8754164616693
 21
-69.7397359492752
 31
0.0
  0
LINE
  5
13F
330
4B
100
AcDbEntity
  8
linea-spessa
100
AcDbLine
 10
-758.5791684966825
 20
-15.04374105148599
 30
0.0
 11
-763.0605397810868
 21
-15.04374105148599
 31
0.0
  0
LINE
  5
140
330
4B
100
AcDbEntity
  8
linea-spessa
100
AcDbLine
 10
-763.0605397810868
 20
-15.04374105148599
 30
0.0
 11
-763.0605397810868
 21
-55.72798375158163
 31
0.0
  0
LINE
  5
141
330
4B
100
AcDbEntity
  8
linea-spessa
100
AcDbLine
 10
-763.0605397810868
 20
-55.72798375158163
 30
0.0
 11
-758.5791684966825
 21
-55.72798375158163
 31
0.0
  0
LINE
  5
142
330
4B
100
AcDbEntity
  8
linea-spessa
100
AcDbLine
 10
-724.5945103867852
 20
-15.04374105148599
 30
0.0
 11
-716.0050544041442
 21
-15.04374105148599
 31
0.0
  0
LINE
  5
143
330
4B
100
AcDbEntity
  8
linea-spessa
100
AcDbLine
 10
-720.1131391023809
 20
-15.04374105148599
 30
0.0
 11
-720.1131391023809
 21
-55.72798375158163
 31
0.0
  0
LINE
  5
144
330
4B
100
AcDbEntity
  8
linea-spessa
100
AcDbLine
 10
-716.0050544041442
 20
-55.72798375158163
 30
0.0
 11
-724.5945103867852
 21
-55.72798375158163
 31
0.0
  0
CIRCLE
  5
145
330
4B
100
AcDbEntity
  8
linea-spessa
100
AcDbCircle
 10
-504.8538243256043
 20
-102.7099450227251
 30
0.0
 40
32.97020907344995
  0
CIRCLE
  5
146
330
4B
100
AcDbEntity
  8
linea-spessa
100
AcDbCircle
 10
-507.0366632273362
 20
-98.598803920293
 30
0.0
 40
19.80732357962219
  0
CIRCLE
  5
147
330
4B
100
AcDbEntity
  8
linea-spessa
100
AcDbCircle
 10
-514.1962540593813
 20
-109.8133682734624
 30
0.0
 40
6.502204470282821
  0
CIRCLE
  5
148
330
4B
100
AcDbEntity
  8
linea-spessa
100
AcDbCircle
 10
-495.1820666977437
 20
-94.10791268611502
 30
0.0
 40
6.502204470282821
  0
LWPOLYLINE
  5
149
330
4B
100
AcDbEntity
  8
linea-spessa
100
AcDbPolyline
 90
        4
 70
     1
 43
0.0
 10
-616.7890786126663
 20
-117.2171606887132
 10
-606.3007037425996
 20
-117.2171606887132
 10
-606.3007037425996
 20
-82.82125002324756
 10
-616.7890786126663
 20
-82.82125002324756
  0
LWPOLYLINE
  5
14A
330
4B
100
AcDbEntity
  8
linea-spessa
100
AcDbPolyline
 90
        4
 70
     1
 43
0.0
 10
-606.3007037425996
 20
-115.3579386767378
 10
-585.8378117909305
 20
-115.3579386767378
 10
-585.8378117909305
 20
-84.68047203520837
 10
-606.3007037425996
 20
-84.68047203520837
  0
LWPOLYLINE
  5
14B
330
4B
100
AcDbEntity
  8
linea-spessa
100
AcDbPolyline
 90
        4
 70
     0
 43
0.0
 10
-535.8162880946765
 20
-91.38031468034023
 10
-556.4493730868853
 20
-91.38031468034023
 10
-556.4493730868853
 20
-108.6580960316059
 10
-537.2830424155108
 20
-108.6580960316059
  0
LINE
  5
14C
330
4B
100
AcDbEntity
  8
linea-spessa
100
AcDbLine
 10
-556.4493730868853
 20
-94.58711155256606
 30
0.0
 11
-585.8378117909305
 21
-94.58711155256606
 31
0.0
  0
LINE
  5
14D
330
4B
100
AcDbEntity
  8
linea-spessa
100
AcDbLine
 10
-556.4493730868853
 20
-105.4512991593801
 30
0.0
 11
-585.8378117909305
 21
-105.4512991593801
 31
0.0
  0
LINE
  5
14E
330
4B
100
AcDbEntity
  8
linea-spessa
100
AcDbLine
 10
-575.0019941811333
 20
-92.40041270632355
 30
0.0
 11
-575.0019941811333
 21
-107.6379980056226
 31
0.0
  0
LWPOLYLINE
  5
14F
330
4B
100
AcDbEntity
  8
linea-spessa
100
AcDbPolyline
 90
        4
 70
     1
 43
0.0
 10
-751.4094333510729
 20
-119.4081077518494
 10
-731.4471149677411
 20
-119.4081077518494
 10
-731.4471149677411
 20
-127.1675366105337
 10
-751.4094333510729
 20
-127.1675366105337
  0
CIRCLE
  5
150
330
4B
100
AcDbEntity
  8
linea-spessa
100
AcDbCircle
 10
-680.1217189380259
 20
-16.22183228697395
 30
0.0
 40
31.77132180475747
  0
LWPOLYLINE
  5
151
330
4B
100
AcDbEntity
  8
linea-spessa
100
AcDbPolyline
 90
        4
 70
     1
 43
0.0
 10
-643.2174307706591
 20
36.73028980252275
 10
-613.2554760530766
 20
36.73028980252275
 10
-613.2554760530766
 20
-51.27973652325454
 10
-643.2174307706591
 20
-51.27973652325454
  0
LINE
  5
152
330
4B
100
AcDbEntity
  8
linea-spessa
100
AcDbLine
 10
-639.5600434324006
 20
-51.27973652325454
 30
0.0
 11
-639.5600434324006
 21
-63.09957063678303
 31
0.0
  0
LINE
  5
153
330
4B
100
AcDbEntity
  8
linea-spessa
100
AcDbLine
 10
-616.9128633913351
 20
-51.27973652325454
 30
0.0
 11
-616.9128633912769
 21
-63.09957063681213
 31
0.0
  0
LINE
  5
154
330
4B
100
AcDbEntity
  8
linea-spessa
100
AcDbLine
 10
-654.2423801265831
 20
-77.64328452319023
 30
0.0
 11
-663.3629515291832
 21
-43.2136941004428
 31
0.0
  0
LINE
  5
155
330
4B
100
AcDbEntity
  8
linea-spessa
100
AcDbLine
 10
-672.1992388150247
 20
-82.40014656606945
 30
0.0
 11
-681.3198102176247
 21
-47.97055614333658
 31
0.0
  0
ARC
  5
156
330
4B
100
AcDbEntity
  8
linea-spessa
100
AcDbCircle
 10
-663.2208094708039
 20
-80.02171554462984
 30
0.0
 40
9.288117549477458
100
AcDbArc
 50
194.8371421682182
 51
14.83714216821823
  0
LINE
  5
157
330
4B
100
AcDbEntity
  8
linea-spessa
100
AcDbLine
 10
-656.3360698340984
 20
-69.7397359492752
 30
0.0
 11
-636.0122509103966
 21
-69.7397359492752
 31
0.0
  0
CIRCLE
  5
158
330
4B
100
AcDbEntity
  8
linea-spessa
100
AcDbCircle
 10
-709.7643693094724
 20
-79.55724383011693
 30
0.0
 40
8.5
  0
CIRCLE
  5
159
330
4B
100
AcDbEntity
  8
linea-spessa
100
AcDbCircle
 10
-741.2825100346817
 20
-87.39394977719348
 30
0.0
 40
8.5
  0
CIRCLE
  5
15A
330
4B
100
AcDbEntity
  8
linea-spessa
100
AcDbCircle
 10
-698.0795692665269
 20
-106.9090444446192
 30
0.0
 40
8.5
  0
CIRCLE
  5
15B
330
4B
100
AcDbEntity
  8
linea-spessa
100
AcDbCircle
 10
-662.5639651672681
 20
-106.9090444446192
 30
0.0
 40
8.5
  0
LWPOLYLINE
  5
15C
330
4B
100
AcDbEntity
  8
linea-spessa
100
AcDbPolyline
 90
        4
 70
     1
 43
0.0
 10
-619.3993071063013
 20
-114.8686654673656
 10
-638.4439274086325
 20
-114.8686654673656
 10
-638.4439274086325
 20
-85.23609834667878
 10
-619.3993071063013
 20
-85.23609834667878
  0
LWPOLYLINE
  5
15D
330
4B
100
AcDbEntity
  8
linea-spessa
100
AcDbPolyline
 90
        4
 70
     1
 43
0.0
 10
-621.8309836045664
 20
-85.23609834667878
 10
-636.0122509103966
 20
-85.23609834667878
 10
-636.0122509103966
 20
-63.09957063681213
 10
-621.8309836045664
 20
-63.09957063681213
  0
LINE
  5
15E
330
4B
100
AcDbEntity
  8
linea-spessa
100
AcDbLine
 10
-636.0122509103966
 20
-63.09957063681213
 30
0.0
 11
-639.5600434324006
 21
-63.09957063679758
 31
0.0
  0
LINE
  5
15F
330
4B
100
AcDbEntity
  8
linea-spessa
100
AcDbLine
 10
-621.8309836045664
 20
-63.09957063681213
 30
0.0
 11
-616.912863391306
 21
-63.09957063681213
 31
0.0
  0
LINE
  5
160
330
4B
100
AcDbEntity
  8
linea-spessa
100
AcDbLine
 10
-621.8309836045664
 20
-69.7397359492752
 30
0.0
 11
-504.8538243256043
 21
-69.73973594928975
 31
0.0
  0
CIRCLE
  5
161
330
4B
100
AcDbEntity
  8
linea-spessa
100
AcDbCircle
 10
-627.722957920283
 20
23.6834088110918
 30
0.0
 40
12.06695895956363
  0
CIRCLE
  5
162
330
4B
100
AcDbEntity
  8
linea-spessa
100
AcDbCircle
 10
-627.722957920283
 20
23.6834088110918
 30
0.0
 40
4.022292680383543
  0
CIRCLE
  5
163
330
4B
100
AcDbEntity
  8
linea-spessa
100
AcDbCircle
 10
-628.9216172574669
 20
-106.7157303460117
 30
0.0
 40
6.212349640933098
  0
LINE
  5
164
330
4B
100
AcDbEntity
  8
linea-spessa
100
AcDbLine
 10
-606.3007037425996
 20
-90.99837975134141
 30
0.0
 11
-616.7890786126372
 21
-90.99837975134141
 31
0.0
  0
LINE
  5
165
330
4B
100
AcDbEntity
  8
linea-spessa
100
AcDbLine
 10
-606.3007037425996
 20
-109.0400309606048
 30
0.0
 11
-616.7890786126372
 21
-109.0400309606048
 31
0.0
  0
LINE
  5
166
330
4B
100
AcDbEntity
  8
linea-spessa
100
AcDbLine
 10
-746.6701066645036
 20
-127.1675366105337
 30
0.0
 11
-746.6701066645036
 21
-119.4081077518494
 31
0.0
  0
LINE
  5
167
330
4B
100
AcDbEntity
  8
linea-spessa
100
AcDbLine
 10
-736.1864416543103
 20
-127.1675366105337
 30
0.0
 11
-736.1864416543103
 21
-119.4081077518494
 31
0.0
  0
LWPOLYLINE
  5
168
330
4B
100
AcDbEntity
  8
linea-spessa
100
AcDbPolyline
 90
        4
 70
     1
 43
0.0
 10
-709.4456687915371
 20
-119.4081077518494
 10
-689.4833504082052
 20
-119.4081077518494
 10
-689.4833504082052
 20
-127.1675366105337
 10
-709.4456687915371
 20
-127.1675366105337
  0
LINE
  5
169
330
4B
100
AcDbEntity
  8
linea-spessa
100
AcDbLine
 10
-704.7063421049679
 20
-127.1675366105337
 30
0.0
 11
-704.7063421049679
 21
-119.4081077518494
 31
0.0
  0
LINE
  5
16A
330
4B
100
AcDbEntity
  8
linea-spessa
100
AcDbLine
 10
-694.2226770947745
 20
-127.1675366105337
 30
0.0
 11
-694.2226770947745
 21
-119.4081077518494
 31
0.0
  0
LWPOLYLINE
  5
16B
330
4B
100
AcDbEntity
  8
linea-spessa
100
AcDbPolyline
 90
        4
 70
     1
 43
0.0
 10
-653.0647816357377
 20
-119.4081077518494
 10
-633.1024632524059
 20
-119.4081077518494
 10
-633.1024632524059
 20
-127.1675366105337
 10
-653.0647816357377
 20
-127.1675366105337
  0
LINE
  5
16C
330
4B
100
AcDbEntity
  8
linea-spessa
100
AcDbLine
 10
-648.3254549491684
 20
-127.1675366105337
 30
0.0
 11
-648.3254549491684
 21
-119.4081077518494
 31
0.0
  0
LINE
  5
16D
330
4B
100
AcDbEntity
  8
linea-spessa
100
AcDbLine
 10
-637.8417899389751
 20
-127.1675366105337
 30
0.0
 11
-637.8417899389751
 21
-119.4081077518494
 31
0.0
  0
LINE
  5
16E
330
4B
100
AcDbEntity
  8
linea-spessa
100
AcDbLine
 10
-613.2554760530766
 20
32.16090329863073
 30
0.0
 11
-530.7729879744875
 21
56.06733879876265
 31
0.0
  0
LINE
  5
16F
330
4B
100
AcDbEntity
  8
linea-spessa
100
AcDbLine
 10
-648.7609872216417
 20
-11.13052641962713
 30
0.0
 11
-643.2174307706591
 21
-11.13052641962713
 31
0.0
  0
LINE
  5
170
330
4B
100
AcDbEntity
  8
linea-spessa
100
AcDbLine
 10
-648.3615263616666
 20
-15.38096563078579
 30
0.0
 11
-643.2174307706591
 21
-15.38096563078579
 31
0.0
  0
LINE
  5
171
330
4B
100
AcDbEntity
  8
linea-spessa
100
AcDbLine
 10
-673.2008834372391
 20
14.78653634461807
 30
0.0
 11
-643.2174307706591
 21
23.47683526674519
 31
0.0
  0
LINE
  5
172
330
4B
100
AcDbEntity
  8
linea-spessa
100
AcDbLine
 10
-750.3658708865405
 20
-7.578693394432775
 30
0.0
 11
-702.5516513876501
 21
6.279612545011332
 31
0.0
  0
ARC
  5
173
330
4B
100
AcDbEntity
  8
linea-spessa
100
AcDbCircle
 10
-501.349041111971
 20
-117.4332866079348
 30
0.0
 40
101.8340593628576
100
AcDbArc
 50
217.2477630424223
 51
221.6658717618362
  0
LINE
  5
174
330
4B
100
AcDbEntity
  8
linea-spessa
100
AcDbLine
 10
-849.2716882916575
 20
-353.2814972790948
 30
0.0
 11
-801.4857431729323
 21
-353.2814972790948
 31
0.0
  0
LINE
  5
175
330
4B
100
AcDbEntity
  8
linea-spessa
100
AcDbLine
 10
-801.4857431729323
 20
-353.2814972790948
 30
0.0
 11
-801.4857431729323
 21
-241.3110421205784
 31
0.0
  0
LINE
  5
176
330
4B
100
AcDbEntity
  8
linea-spessa
100
AcDbLine
 10
-801.4857431729323
 20
-241.3110421205784
 30
0.0
 11
-849.2716882916575
 21
-241.3110421205784
 31
0.0
  0
LINE
  5
177
330
4B
100
AcDbEntity
  8
linea-spessa
100
AcDbLine
 10
-607.6076882916677
 20
-353.2814972790948
 30
0.0
 11
-655.3936334103927
 21
-353.2814972790948
 31
0.0
  0
LINE
  5
178
330
4B
100
AcDbEntity
  8
linea-spessa
100
AcDbLine
 10
-655.3936334103927
 20
-353.2814972790948
 30
0.0
 11
-655.3936334103927
 21
-241.3110421205784
 31
0.0
  0
LINE
  5
179
330
4B
100
AcDbEntity
  8
linea-spessa
100
AcDbLine
 10
-655.3936334103927
 20
-241.3110421205784
 30
0.0
 11
-607.6076882916677
 21
-241.3110421205784
 31
0.0
  0
LINE
  5
17A
330
4B
100
AcDbEntity
  8
linea-fine
100
AcDbLine
 10
-1044.999999999971
 20
122.0796671769203
 30
0.0
 11
-1075.428901257022
 21
122.0796671769203
 31
0.0
  0
ARC
  5
17B
330
4B
100
AcDbEntity
  8
linea-fine
100
AcDbCircle
 10
-1059.960813898797
 20
-134.8279702000436
 30
0.0
 40
257.3728732192677
100
AcDbArc
 50
93.4455477258295
 51
112.3660898903589
  0
ARC
  5
17C
330
4B
100
AcDbEntity
  8
linea-fine
100
AcDbCircle
 10
-1221.269665045547
 20
-108.3354504245508
 30
0.0
 40
94.73033495441159
100
AcDbArc
 50
177.6802951121621
 51
259.578463473392
  0
LINE
  5
17D
330
4B
100
AcDbEntity
  8
linea-fine
100
AcDbLine
 10
-1238.405325501924
 20
-201.5030708798295
 30
0.0
 11
-1238.405325502011
 21
-124.8616109058202
 31
0.0
  0
LINE
  5
17E
330
4B
100
AcDbEntity
  8
linea-fine
100
AcDbLine
 10
-1238.405325501953
 20
-129.1120501169935
 30
0.0
 11
-1163.135474370879
 21
-129.1120501169935
 31
0.0
  0
LINE
  5
17F
330
4B
100
AcDbEntity
  8
linea-fine
100
AcDbLine
 10
-1142.359091334452
 20
-120.0369015823526
 30
0.0
 11
-1052.394495049404
 21
-22.91279981937259
 31
0.0
  0
LINE
  5
180
330
4B
100
AcDbEntity
  8
linea-fine
100
AcDbLine
 10
-1145.35533175728
 20
-117.0158069324825
 30
0.0
 11
-1057.599795290472
 21
-22.29783026885707
 31
0.0
  0
ARC
  5
181
330
4B
100
AcDbEntity
  8
linea-fine
100
AcDbCircle
 10
-1163.135474370879
 20
-100.7920501169865
 30
0.0
 40
28.32
100
AcDbArc
 50
270.0
 51
317.1915240477742
  0
ARC
  5
182
330
4B
100
AcDbEntity
  8
linea-fine
100
AcDbCircle
 10
-1163.135474370879
 20
-100.7920501169865
 30
0.0
 40
24.0695607888382
100
AcDbArc
 50
270.0
 51
317.1915240477742
  0
LINE
  5
183
330
4B
100
AcDbEntity
  8
linea-fine
100
AcDbLine
 10
-1279.668228173075
 20
-124.8616109058202
 30
0.0
 11
-1163.135474370879
 21
-124.8616109058202
 31
0.0
  0
LINE
  5
184
330
4B
100
AcDbEntity
  8
linea-fine
100
AcDbLine
 10
-1055.804412350087
 20
3.638118726725224
 30
0.0
 11
-1044.999999999971
 21
6.769631766423117
 31
0.0
  0
LINE
  5
185
330
4B
100
AcDbEntity
  8
linea-fine
100
AcDbLine
 10
-1153.110601824446
 20
-95.42837609973503
 30
0.0
 11
-1068.694931444392
 21
-4.315247298771282
 31
0.0
  0
ARC
  5
186
330
4B
100
AcDbEntity
  8
linea-fine
100
AcDbCircle
 10
-1047.920702342671
 20
-23.562423850919
 30
0.0
 40
28.32
100
AcDbArc
 50
106.1635173979595
 51
137.1851117400188
  0
LINE
  5
187
330
4B
100
AcDbEntity
  8
linea-fine
100
AcDbLine
 10
-1315.922371719935
 20
-104.5011995476088
 30
0.0
 11
-1173.884830926137
 21
-104.5011995476088
 31
0.0
  0
ARC
  5
188
330
4B
100
AcDbEntity
  8
linea-fine
100
AcDbCircle
 10
-1173.884830926137
 20
-76.18119954760186
 30
0.0
 40
28.32
100
AcDbArc
 50
270.0
 51
317.1851117400188
  0
LINE
  5
189
330
4B
100
AcDbEntity
  8
linea-fine
100
AcDbLine
 10
-1120.271688291657
 20
-192.1713612634921
 30
0.0
 11
-1120.271688291657
 21
-399.2171405388217
 31
0.0
  0
LINE
  5
18A
330
4B
100
AcDbEntity
  8
linea-fine
100
AcDbLine
 10
-1126.321583330893
 20
-323.160494239768
 30
0.0
 11
-1142.000588350231
 21
-298.284075853313
 31
0.0
  0
LINE
  5
18B
330
4B
100
AcDbEntity
  8
linea-fine
100
AcDbLine
 10
-1142.000588350202
 20
-192.1713612634921
 30
0.0
 11
-1142.000588350202
 21
-298.2840758533421
 31
0.0
  0
LINE
  5
18C
330
4B
100
AcDbEntity
  8
linea-fine
100
AcDbLine
 10
-1126.321583330893
 20
-192.1713612634921
 30
0.0
 11
-1126.321583330893
 21
-399.2171405388217
 31
0.0
  0
ARC
  5
18D
330
4B
100
AcDbEntity
  8
linea-fine
100
AcDbCircle
 10
-1005.811625643517
 20
-190.5255267674365
 30
0.0
 40
227.2143345594467
100
AcDbArc
 50
164.3185506013308
 51
237.9688608794664
  0
ARC
  5
18E
330
4B
100
AcDbEntity
  8
linea-fine
100
AcDbCircle
 10
-1005.811625643517
 20
-190.5255267674365
 30
0.0
 40
239.5296599355066
100
AcDbArc
 50
182.2682070569936
 51
239.793977148768
  0
CIRCLE
  5
18F
330
4B
100
AcDbEntity
  8
linea-fine
100
AcDbCircle
 10
-1244.071427497751
 20
-258.4666624075908
 30
0.0
 40
5.13917090430462
  0
ARC
  5
190
330
4B
100
AcDbEntity
  8
linea-fine
100
AcDbCircle
 10
-1244.071427497751
 20
-258.4666624075908
 30
0.0
 40
8.91517090430462
100
AcDbArc
 50
163.7661862901341
 51
228.0654162635006
  0
LINE
  5
191
330
4B
100
AcDbEntity
  8
linea-fine
100
AcDbLine
 10
-1243.934273040824
 20
-226.1053498388065
 30
0.0
 11
-1252.631140454177
 21
-255.974356977662
 31
0.0
  0
LINE
  5
192
330
4B
100
AcDbEntity
  8
linea-fine
100
AcDbLine
 10
-1224.66081383379
 20
-287.888203483395
 30
0.0
 11
-1250.029273068095
 21
-265.0987321005814
 31
0.0
  0
CIRCLE
  5
193
330
4B
100
AcDbEntity
  8
linea-fine
100
AcDbCircle
 10
-1126.245109486102
 20
-407.0422860753897
 30
0.0
 40
5.13917090430462
  0
ARC
  5
194
330
4B
100
AcDbEntity
  8
linea-fine
100
AcDbCircle
 10
-1126.245109486102
 20
-407.0422860753897
 30
0.0
 40
8.91517090430462
100
AcDbArc
 50
208.7661862903685
 51
273.0654162626704
  0
LINE
  5
195
330
4B
100
AcDbEntity
  8
linea-fine
100
AcDbLine
 10
-1150.470996054937
 20
-381.4394459587493
 30
0.0
 11
-1134.060066632926
 21
-411.3325910816201
 31
0.0
  0
LINE
  5
196
330
4B
100
AcDbEntity
  8
linea-fine
100
AcDbLine
 10
-1091.71556172971
 20
-414.1210807342576
 30
0.0
 11
-1125.768361036986
 21
-415.9447005326655
 31
0.0
  0
ARC
  5
197
330
4B
100
AcDbEntity
  8
linea-fine
100
AcDbCircle
 10
-999.4396882916626
 20
-192.1713612634921
 30
0.0
 40
120.832
100
AcDbArc
 50
122.2515890842409
 51
180.0
  0
ARC
  5
198
330
4B
100
AcDbEntity
  8
linea-fine
100
AcDbCircle
 10
-999.4396882916626
 20
-192.1713612634921
 30
0.0
 40
126.8818950392082
100
AcDbArc
 50
120.5435687036954
 51
180.0
  0
ARC
  5
199
330
4B
100
AcDbEntity
  8
linea-fine
100
AcDbCircle
 10
-999.4396882916626
 20
-192.1713612634921
 30
0.0
 40
142.5609000585456
100
AcDbArc
 50
116.8914574871505
 51
180.0
  0
CIRCLE
  5
19A
330
4B
100
AcDbEntity
  8
linea-fine
100
AcDbCircle
 10
-1092.774783436878
 20
-95.8104259216634
 30
0.0
 40
3.643018654267344
  0
CIRCLE
  5
19B
330
4B
100
AcDbEntity
  8
linea-fine
100
AcDbCircle
 10
-1133.918627000035
 20
-296.8316742193274
 30
0.0
 40
3.643018654267344
  0
LINE
  5
19C
330
4B
100
AcDbEntity
  8
linea-fine
100
AcDbLine
 10
-1005.811625643517
 20
-372.9974280684837
 30
0.0
 11
-1116.331789286138
 21
-372.9974280684837
 31
0.0
  0
LINE
  5
19D
330
4B
100
AcDbEntity
  8
linea-fine
100
AcDbLine
 10
-1120.271688291657
 20
-399.2171405388362
 30
0.0
 11
-1120.271688291657
 21
-365.4232288878266
 31
0.0
  0
LINE
  5
19E
330
4B
100
AcDbEntity
  8
linea-fine
100
AcDbLine
 10
-1120.271688291657
 20
-399.2171405388362
 30
0.0
 11
-1126.321583330835
 21
-399.2171405388362
 31
0.0
  0
LINE
  5
19F
330
4B
100
AcDbEntity
  8
linea-fine
100
AcDbLine
 10
-1120.271688291657
 20
-399.2171405388362
 30
0.0
 11
-1116.331789286167
 21
-372.9974280684983
 31
0.0
  0
ARC
  5
1A0
330
4B
100
AcDbEntity
  8
linea-fine
100
AcDbCircle
 10
-1005.811625643517
 20
-190.5255267674365
 30
0.0
 40
239.5296599355066
100
AcDbArc
 50
240.6049051348193
 51
270.0
  0
ARC
  5
1A1
330
4B
100
AcDbEntity
  8
linea-fine
100
AcDbCircle
 10
-1005.811625643517
 20
-190.5255267674365
 30
0.0
 40
227.2143345594467
100
AcDbArc
 50
240.2511032063502
 51
270.0
  0
LINE
  5
1A2
330
4B
100
AcDbEntity
  8
linea-fine
100
AcDbLine
 10
-1294.785952114646
 20
-45.97043421946
 30
0.0
 11
-1044.999999999971
 21
26.42665141864564
 31
0.0
  0
ARC
  5
1A3
330
4B
100
AcDbEntity
  8
linea-fine
100
AcDbCircle
 10
-1303.761882559891
 20
-43.27972193434834
 30
0.0
 40
3.084000996429786
100
AcDbArc
 50
263.449022319785
 51
330.9460287624115
  0
LINE
  5
1A4
330
4B
100
AcDbEntity
  8
linea-fine
100
AcDbLine
 10
-1304.113727530319
 20
-46.34358669357607
 30
0.0
 11
-1297.413855450431
 21
-46.34358669357607
 31
0.0
  0
ARC
  5
1A5
330
4B
100
AcDbEntity
  8
linea-fine
100
AcDbCircle
 10
-1297.413855450431
 20
-36.90358669357375
 30
0.0
 40
9.440000000000001
100
AcDbArc
 50
270.0
 51
286.1635173979595
  0
ARC
  5
1A6
330
4B
100
AcDbEntity
  8
linea-fine
100
AcDbCircle
 10
-1161.876320267824
 20
-105.5019112741865
 30
0.0
 40
154.0493018223283
100
AcDbArc
 50
157.4169603109656
 51
179.6278012228355
  0
LINE
  5
1A7
330
4B
100
AcDbEntity
  8
linea-fine
100
AcDbLine
 10
-1101.718762902252
 20
9.987483801902271
 30
0.0
 11
-1161.435029472748
 21
101.6964036872814
 31
0.0
  0
LINE
  5
1A8
330
4B
100
AcDbEntity
  8
linea-fine
100
AcDbLine
 10
-1097.928194982727
 20
11.08612873352831
 30
0.0
 11
-1157.897143512993
 21
103.1831035146897
 31
0.0
  0
ARC
  5
1A9
330
4B
100
AcDbEntity
  8
linea-fine
100
AcDbCircle
 10
-1059.960813898797
 20
-134.8279702000436
 30
0.0
 40
257.3728732192677
100
AcDbArc
 50
113.2204082739783
 51
159.5198025189051
  0
ARC
  5
1AA
330
4B
100
AcDbEntity
  8
linea-fine
100
AcDbCircle
 10
-1159.884059166245
 20
102.9584611750615
 30
0.0
 40
1.999574453258063
100
AcDbArc
 50
219.1359816315997
 51
6.450516530523181
  0
LINE
  5
1AB
330
4B
100
AcDbEntity
  8
linea-fine
100
AcDbLine
 10
-1120.271688291657
 20
-353.2814972790948
 30
0.0
 11
-1072.485743172932
 21
-353.2814972790948
 31
0.0
  0
LINE
  5
1AC
330
4B
100
AcDbEntity
  8
linea-fine
100
AcDbLine
 10
-1072.485743172932
 20
-353.2814972790948
 30
0.0
 11
-1072.485743172932
 21
-241.3110421205784
 31
0.0
  0
LINE
  5
1AD
330
4B
100
AcDbEntity
  8
linea-fine
100
AcDbLine
 10
-1072.485743172932
 20
-241.3110421205784
 30
0.0
 11
-1120.271688291657
 21
-241.3110421205784
 31
0.0
  0
ENDBLK
  5
1AE
330
4B
100
AcDbEntity
  8
0
100
AcDbBlockEnd
  0
BLOCK
  5
1B1
330
1B0
100
AcDbEntity
  8
0
100
AcDbBlockBegin
  2
rl55-85mblu2
 70
     0
 10
0.0
 20
0.0
 30
0.0
  3
rl55-85mblu2
  1

  0
LINE
  5
1B2
330
1B0
100
AcDbEntity
  8
linea-spessa
100
AcDbLine
 10
-67.67873380507808
 20
0.0
 30
0.0
 11
67.67873380507808
 21
0.0
 31
0.0
  0
LINE
  5
1B3
330
1B0
100
AcDbEntity
  8
linea-spessa
100
AcDbLine
 10
77.67873380507808
 20
10.0
 30
0.0
 11
77.67873380507808
 21
228.5521158231131
 31
0.0
  0
LINE
  5
1B4
330
1B0
100
AcDbEntity
  8
linea-spessa
100
AcDbLine
 10
-77.67873380507808
 20
10.0
 30
0.0
 11
-77.67873380507808
 21
228.5521158231131
 31
0.0
  0
LINE
  5
1B5
330
1B0
100
AcDbEntity
  8
linea-spessa
100
AcDbLine
 10
-80.74465573931229
 20
228.5521158231131
 30
0.0
 11
80.74487119464903
 21
228.5521158231131
 31
0.0
  0
ARC
  5
1B6
330
1B0
100
AcDbEntity
  8
linea-spessa
100
AcDbCircle
 10
-67.67873380507808
 20
10.0
 30
0.0
 40
10.0
100
AcDbArc
 50
180.0
 51
270.0
  0
ARC
  5
1B7
330
1B0
100
AcDbEntity
  8
linea-spessa
100
AcDbCircle
 10
67.67873380507808
 20
10.0000000000291
 30
0.0
 40
10.0
100
AcDbArc
 50
270.0
 51
0.0
  0
LINE
  5
1B8
330
1B0
100
AcDbEntity
  8
linea-spessa
100
AcDbLine
 10
-32.83339416526724
 20
0.0
 30
0.0
 11
-32.83339416526724
 21
228.5521158231131
 31
0.0
  0
LINE
  5
1B9
330
1B0
100
AcDbEntity
  8
linea-spessa
100
AcDbLine
 10
-24.83339416526724
 20
0.0
 30
0.0
 11
-24.83339416526724
 21
228.5521158231131
 31
0.0
  0
LINE
  5
1BA
330
1B0
100
AcDbEntity
  8
linea-spessa
100
AcDbLine
 10
126.0345533662475
 20
305.1935757971223
 30
0.0
 11
193.2906106907175
 21
305.1935757971223
 31
0.0
  0
ARC
  5
1BB
330
1B0
100
AcDbEntity
  8
linea-spessa
100
AcDbCircle
 10
-232.5797643480182
 20
234.4728360697772
 30
0.0
 40
141.8898967341875
100
AcDbArc
 50
1.538967533178715
 51
23.04957761141813
  0
ARC
  5
1BC
330
1B0
100
AcDbEntity
  8
linea-spessa
100
AcDbCircle
 10
-80.74465574027271
 20
238.5521158207994
 30
0.0
 40
10.0
100
AcDbArc
 50
181.5389675206768
 51
270.0000000050025
  0
ARC
  5
1BD
330
1B0
100
AcDbEntity
  8
linea-spessa
100
AcDbCircle
 10
232.5797643480182
 20
234.4728360697772
 30
0.0
 40
141.8898967341875
100
AcDbArc
 50
156.9504223885819
 51
178.4610324668213
  0
ARC
  5
1BE
330
1B0
100
AcDbEntity
  8
linea-spessa
100
AcDbCircle
 10
80.74465574027271
 20
238.5521158207994
 30
0.0
 40
10.0
100
AcDbArc
 50
269.9999999933299
 51
358.4610324793232
  0
ARC
  5
1BF
330
1B0
100
AcDbEntity
  8
linea-spessa
100
AcDbCircle
 10
-124.937108711485
 20
280.3321683962567
 30
0.0
 40
24.88560808716231
100
AcDbArc
 50
22.92718669432314
 51
92.52704248984409
  0
ARC
  5
1C0
330
1B0
100
AcDbEntity
  8
linea-spessa
100
AcDbCircle
 10
124.9373241668218
 20
280.3321683962567
 30
0.0
 40
24.88560808716231
100
AcDbArc
 50
87.4729575101559
 51
157.0728133056768
  0
LINE
  5
1C1
330
1B0
100
AcDbEntity
  8
linea-spessa
100
AcDbLine
 10
-126.0343379109399
 20
305.1935757971223
 30
0.0
 11
-193.2906106907175
 21
305.1935757971223
 31
0.0
  0
LINE
  5
1C2
330
1B0
100
AcDbEntity
  8
linea-spessa
100
AcDbLine
 10
-203.2906106907176
 20
315.1935757971223
 30
0.0
 11
-203.2906106907176
 21
352.1657936643896
 31
0.0
  0
LINE
  5
1C3
330
1B0
100
AcDbEntity
  8
linea-spessa
100
AcDbLine
 10
203.2906106907176
 20
315.1935757971223
 30
0.0
 11
203.2906106907176
 21
352.167550048107
 31
0.0
  0
ARC
  5
1C4
330
1B0
100
AcDbEntity
  8
linea-spessa
100
AcDbCircle
 10
-193.2906106906885
 20
315.1935757971223
 30
0.0
 40
10.0
100
AcDbArc
 50
180.0
 51
270.0
  0
ARC
  5
1C5
330
1B0
100
AcDbEntity
  8
linea-spessa
100
AcDbCircle
 10
193.2906106907175
 20
315.1935757971223
 30
0.0
 40
10.0
100
AcDbArc
 50
270.0
 51
0.0
  0
LINE
  5
1C6
330
1B0
100
AcDbEntity
  8
linea-spessa
100
AcDbLine
 10
-203.2906106907176
 20
325.5539871553338
 30
0.0
 11
203.2906106907176
 21
325.5539871553338
 31
0.0
  0
LINE
  5
1C7
330
1B0
100
AcDbEntity
  8
linea-spessa
100
AcDbLine
 10
-114.8550974408281
 20
555.0551867029425
 30
0.0
 11
114.8554997781175
 21
555.0551867029425
 31
0.0
  0
ARC
  5
1C8
330
1B0
100
AcDbEntity
  8
linea-spessa
100
AcDbCircle
 10
539.8984876616741
 20
260.9997908501973
 30
0.0
 40
748.7598252970918
100
AcDbArc
 50
159.5573676718274
 51
173.0065427044904
  0
ARC
  5
1C9
330
1B0
100
AcDbEntity
  8
linea-spessa
100
AcDbCircle
 10
-114.8550974408863
 20
505.0551867032918
 30
0.0
 40
50.0
100
AcDbArc
 50
90.0
 51
159.5573676718274
  0
ARC
  5
1CA
330
1B0
100
AcDbEntity
  8
linea-spessa
100
AcDbCircle
 10
-539.8982722063374
 20
260.9997908501973
 30
0.0
 40
748.7598252970918
100
AcDbArc
 50
6.993457295509623
 51
20.44263232817258
  0
ARC
  5
1CB
330
1B0
100
AcDbEntity
  8
linea-spessa
100
AcDbCircle
 10
114.8553128962521
 20
505.0551867032918
 30
0.0
 40
50.0
100
AcDbArc
 50
20.44263232817258
 51
90.0
  0
LINE
  5
1CC
330
1B0
100
AcDbEntity
  8
linea-spessa
100
AcDbLine
 10
147.6385448088404
 20
383.7116000093665
 30
0.0
 11
-147.6385448088404
 21
383.7116000093665
 31
0.0
  0
ARC
  5
1CD
330
1B0
100
AcDbEntity
  8
linea-spessa
100
AcDbCircle
 10
-140.7049183565541
 20
439.4325216007855
 30
0.0
 40
56.15065697547371
100
AcDbArc
 50
203.1159903017327
 51
262.9068664535161
  0
ARC
  5
1CE
330
1B0
100
AcDbEntity
  8
linea-spessa
100
AcDbCircle
 10
140.7049183565541
 20
439.4325216007855
 30
0.0
 40
56.15065697547371
100
AcDbArc
 50
277.0931335464839
 51
336.8840096982673
  0
LINE
  5
1CF
330
1B0
100
AcDbEntity
  8
linea-spessa
100
AcDbLine
 10
29.14390710924635
 20
486.8840307365026
 30
0.0
 11
29.14390710915905
 21
446.1098163215792
 31
0.0
  0
LINE
  5
1D0
330
1B0
100
AcDbEntity
  8
linea-spessa
100
AcDbLine
 10
-29.14390710924635
 20
486.8840307364735
 30
0.0
 11
-29.14390710933367
 21
446.1098163215502
 31
0.0
  0
LINE
  5
1D1
330
1B0
100
AcDbEntity
  8
linea-spessa
100
AcDbLine
 10
38.20630710924161
 20
510.5457762727164
 30
0.0
 11
38.20630710909609
 21
440.1978546323079
 31
0.0
  0
LINE
  5
1D2
330
1B0
100
AcDbEntity
  8
linea-spessa
100
AcDbLine
 10
-38.2063071092125
 20
510.5457762727455
 30
0.0
 11
-38.20630710929981
 21
440.1978546323952
 31
0.0
  0
LINE
  5
1D3
330
1B0
100
AcDbEntity
  8
linea-spessa
100
AcDbLine
 10
28.76630710923928
 20
519.9857762727479
 30
0.0
 11
-28.76630710923928
 21
519.9857762727187
 31
0.0
  0
LINE
  5
1D4
330
1B0
100
AcDbEntity
  8
linea-spessa
100
AcDbLine
 10
25.36790710923379
 20
490.6600307365006
 30
0.0
 11
-25.36790710923379
 21
490.6600307364715
 31
0.0
  0
LINE
  5
1D5
330
1B0
100
AcDbEntity
  8
linea-spessa
100
AcDbLine
 10
25.36790710917558
 20
442.3338163215812
 30
0.0
 11
-25.36790710932109
 21
442.3338163215521
 31
0.0
  0
LINE
  5
1D6
330
1B0
100
AcDbEntity
  8
linea-spessa
100
AcDbLine
 10
28.76630710909376
 20
430.7578546323347
 30
0.0
 11
-28.76630710932659
 21
430.757854632393
 31
0.0
  0
LINE
  5
1D7
330
1B0
100
AcDbEntity
  8
linea-spessa
100
AcDbLine
 10
129.9943427421967
 20
486.8840307365026
 30
0.0
 11
129.9943427421385
 21
446.1098163215502
 31
0.0
  0
LINE
  5
1D8
330
1B0
100
AcDbEntity
  8
linea-spessa
100
AcDbLine
 10
71.70652852370404
 20
486.8840307364443
 30
0.0
 11
71.70652852361673
 21
446.1098163215792
 31
0.0
  0
LINE
  5
1D9
330
1B0
100
AcDbEntity
  8
linea-spessa
100
AcDbLine
 10
139.0567427422211
 20
510.5457762726874
 30
0.0
 11
139.0567427420756
 21
440.1978546322935
 31
0.0
  0
LINE
  5
1DA
330
1B0
100
AcDbEntity
  8
linea-spessa
100
AcDbLine
 10
62.64412852376699
 20
510.5457762727164
 30
0.0
 11
62.64412852362148
 21
440.1978546324244
 31
0.0
  0
LINE
  5
1DB
330
1B0
100
AcDbEntity
  8
linea-spessa
100
AcDbLine
 10
129.6167427422187
 20
519.9857762727187
 30
0.0
 11
72.08412852374022
 21
519.9857762726897
 31
0.0
  0
LINE
  5
1DC
330
1B0
100
AcDbEntity
  8
linea-spessa
100
AcDbLine
 10
126.2183427422133
 20
490.6600307365006
 30
0.0
 11
75.4825285237166
 21
490.6600307364424
 31
0.0
  0
LINE
  5
1DD
330
1B0
100
AcDbEntity
  8
linea-spessa
100
AcDbLine
 10
126.2183427421259
 20
442.3338163215521
 30
0.0
 11
75.48252852360019
 21
442.3338163215812
 31
0.0
  0
LINE
  5
1DE
330
1B0
100
AcDbEntity
  8
linea-spessa
100
AcDbLine
 10
129.6167427420732
 20
430.7578546323202
 30
0.0
 11
72.0841285235947
 21
430.757854632393
 31
0.0
  0
LINE
  5
1DF
330
1B0
100
AcDbEntity
  8
linea-spessa
100
AcDbLine
 10
-129.9943427427206
 20
486.8840307364735
 30
0.0
 11
-129.9943427426624
 21
446.1098163215502
 31
0.0
  0
LINE
  5
1E0
330
1B0
100
AcDbEntity
  8
linea-spessa
100
AcDbLine
 10
-71.70652852428611
 20
486.8840307364443
 30
0.0
 11
-71.7065285241697
 21
446.1098163215792
 31
0.0
  0
LINE
  5
1E1
330
1B0
100
AcDbEntity
  8
linea-spessa
100
AcDbLine
 10
-139.0567427427741
 20
510.5457762727164
 30
0.0
 11
-139.0567427426576
 21
440.1978546322935
 31
0.0
  0
LINE
  5
1E2
330
1B0
100
AcDbEntity
  8
linea-spessa
100
AcDbLine
 10
-62.64412852431997
 20
510.5457762727455
 30
0.0
 11
-62.64412852417445
 21
440.1978546323952
 31
0.0
  0
LINE
  5
1E3
330
1B0
100
AcDbEntity
  8
linea-spessa
100
AcDbLine
 10
-129.6167427427717
 20
519.9857762727479
 30
0.0
 11
-72.08412852432229
 21
519.9857762727187
 31
0.0
  0
LINE
  5
1E4
330
1B0
100
AcDbEntity
  8
linea-spessa
100
AcDbLine
 10
-126.2183427427371
 20
490.6600307364715
 30
0.0
 11
-75.48252852426958
 21
490.6600307364424
 31
0.0
  0
LINE
  5
1E5
330
1B0
100
AcDbEntity
  8
linea-spessa
100
AcDbLine
 10
-126.2183427426498
 20
442.3338163215521
 30
0.0
 11
-75.48252852418227
 21
442.3338163215812
 31
0.0
  0
LINE
  5
1E6
330
1B0
100
AcDbEntity
  8
linea-spessa
100
AcDbLine
 10
-129.6167427426262
 20
430.7578546323202
 30
0.0
 11
-72.08412852417677
 21
430.7578546323639
 31
0.0
  0
ARC
  5
1E7
330
1B0
100
AcDbEntity
  8
linea-spessa
100
AcDbCircle
 10
129.6167427422187
 20
510.5457762727019
 30
0.0
 40
9.440000000000001
100
AcDbArc
 50
0.0
 51
90.0
  0
ARC
  5
1E8
330
1B0
100
AcDbEntity
  8
linea-spessa
100
AcDbCircle
 10
72.08412852376932
 20
510.5457762726728
 30
0.0
 40
9.440000000000001
100
AcDbArc
 50
90.0
 51
180.0
  0
ARC
  5
1E9
330
1B0
100
AcDbEntity
  8
linea-spessa
100
AcDbCircle
 10
72.0841285236238
 20
440.1978546323808
 30
0.0
 40
9.440000000000001
100
AcDbArc
 50
180.0
 51
270.0
  0
ARC
  5
1EA
330
1B0
100
AcDbEntity
  8
linea-spessa
100
AcDbCircle
 10
129.6167427420732
 20
440.1978546322935
 30
0.0
 40
9.440000000000001
100
AcDbArc
 50
270.0
 51
0.0
  0
ARC
  5
1EB
330
1B0
100
AcDbEntity
  8
linea-spessa
100
AcDbCircle
 10
28.76630710923928
 20
510.545776272731
 30
0.0
 40
9.440000000000001
100
AcDbArc
 50
0.0
 51
90.0
  0
ARC
  5
1EC
330
1B0
100
AcDbEntity
  8
linea-spessa
100
AcDbCircle
 10
-28.76630710921018
 20
510.5457762727019
 30
0.0
 40
9.440000000000001
100
AcDbArc
 50
90.0
 51
180.0
  0
ARC
  5
1ED
330
1B0
100
AcDbEntity
  8
linea-spessa
100
AcDbCircle
 10
-28.76630710929749
 20
440.1978546323808
 30
0.0
 40
9.440000000000001
100
AcDbArc
 50
180.0
 51
270.0
  0
ARC
  5
1EE
330
1B0
100
AcDbEntity
  8
linea-spessa
100
AcDbCircle
 10
28.76630710909376
 20
440.1978546323225
 30
0.0
 40
9.440000000000001
100
AcDbArc
 50
270.0
 51
0.0
  0
ARC
  5
1EF
330
1B0
100
AcDbEntity
  8
linea-spessa
100
AcDbCircle
 10
-72.08412852429319
 20
510.5457762727019
 30
0.0
 40
9.440000000000001
100
AcDbArc
 50
0.0
 51
90.0
  0
ARC
  5
1F0
330
1B0
100
AcDbEntity
  8
linea-spessa
100
AcDbCircle
 10
-129.6167427427717
 20
510.545776272731
 30
0.0
 40
9.440000000000001
100
AcDbArc
 50
90.0
 51
180.0
  0
ARC
  5
1F1
330
1B0
100
AcDbEntity
  8
linea-spessa
100
AcDbCircle
 10
-129.6167427426553
 20
440.1978546322935
 30
0.0
 40
9.440000000000001
100
AcDbArc
 50
180.0
 51
270.0
  0
ARC
  5
1F2
330
1B0
100
AcDbEntity
  8
linea-spessa
100
AcDbCircle
 10
-72.08412852417677
 20
440.1978546323516
 30
0.0
 40
9.440000000000001
100
AcDbArc
 50
270.0
 51
0.0
  0
ARC
  5
1F3
330
1B0
100
AcDbEntity
  8
linea-spessa
100
AcDbCircle
 10
126.2183427422133
 20
486.8840307365026
 30
0.0
 40
3.776
100
AcDbArc
 50
0.0
 51
90.0
  0
ARC
  5
1F4
330
1B0
100
AcDbEntity
  8
linea-spessa
100
AcDbCircle
 10
75.4825285237166
 20
486.8840307364443
 30
0.0
 40
3.776
100
AcDbArc
 50
90.0
 51
180.0
  0
ARC
  5
1F5
330
1B0
100
AcDbEntity
  8
linea-spessa
100
AcDbCircle
 10
75.48252852360019
 20
446.1098163215647
 30
0.0
 40
3.776
100
AcDbArc
 50
180.0
 51
270.0
  0
ARC
  5
1F6
330
1B0
100
AcDbEntity
  8
linea-spessa
100
AcDbCircle
 10
126.2183427421259
 20
446.1098163215356
 30
0.0
 40
3.776
100
AcDbArc
 50
270.0
 51
0.0
  0
ARC
  5
1F7
330
1B0
100
AcDbEntity
  8
linea-spessa
100
AcDbCircle
 10
25.36790710923379
 20
486.8840307365026
 30
0.0
 40
3.776
100
AcDbArc
 50
0.0
 51
90.0
  0
ARC
  5
1F8
330
1B0
100
AcDbEntity
  8
linea-spessa
100
AcDbCircle
 10
25.36790710914647
 20
446.1098163215647
 30
0.0
 40
3.776
100
AcDbArc
 50
270.0
 51
0.0
  0
ARC
  5
1F9
330
1B0
100
AcDbEntity
  8
linea-spessa
100
AcDbCircle
 10
-25.36790710932109
 20
446.1098163215356
 30
0.0
 40
3.776
100
AcDbArc
 50
180.0
 51
270.0
  0
ARC
  5
1FA
330
1B0
100
AcDbEntity
  8
linea-spessa
100
AcDbCircle
 10
-25.36790710923379
 20
486.8840307364735
 30
0.0
 40
3.776
100
AcDbArc
 50
90.0
 51
180.0
  0
ARC
  5
1FB
330
1B0
100
AcDbEntity
  8
linea-spessa
100
AcDbCircle
 10
-75.48252852429868
 20
486.8840307364443
 30
0.0
 40
3.776
100
AcDbArc
 50
0.0
 51
90.0
  0
ARC
  5
1FC
330
1B0
100
AcDbEntity
  8
linea-spessa
100
AcDbCircle
 10
-75.48252852418227
 20
446.1098163215647
 30
0.0
 40
3.776
100
AcDbArc
 50
270.0
 51
0.0
  0
ARC
  5
1FD
330
1B0
100
AcDbEntity
  8
linea-spessa
100
AcDbCircle
 10
-126.2183427426498
 20
446.1098163215356
 30
0.0
 40
3.776
100
AcDbArc
 50
180.0
 51
270.0
  0
ARC
  5
1FE
330
1B0
100
AcDbEntity
  8
linea-spessa
100
AcDbCircle
 10
-126.2183427427371
 20
486.8840307364735
 30
0.0
 40
3.776
100
AcDbArc
 50
90.0
 51
180.0
  0
LINE
  5
1FF
330
1B0
100
AcDbEntity
  8
linea-spessa
100
AcDbLine
 10
203.4337282539927
 20
145.060569126319
 30
0.0
 11
203.4337282539927
 21
206.0328303235729
 31
0.0
  0
LINE
  5
200
330
1B0
100
AcDbEntity
  8
linea-spessa
100
AcDbLine
 10
203.4337282539927
 20
145.060569126319
 30
0.0
 11
203.4337282539927
 21
58.30077726801391
 31
0.0
  0
LINE
  5
201
330
1B0
100
AcDbEntity
  8
linea-spessa
100
AcDbLine
 10
203.4337282539927
 20
57.05775863444433
 30
0.0
 11
163.8131582104834
 21
30.83804616410635
 31
0.0
  0
LINE
  5
202
330
1B0
100
AcDbEntity
  8
linea-spessa
100
AcDbLine
 10
163.8131582104834
 20
30.83804616410635
 30
0.0
 11
77.67873380507808
 21
30.83804616410635
 31
0.0
  0
LINE
  5
203
330
1B0
100
AcDbEntity
  8
linea-spessa
100
AcDbLine
 10
203.4337282539927
 20
57.05775863444433
 30
0.0
 11
203.4337282539636
 21
58.30077726799936
 31
0.0
  0
LINE
  5
204
330
1B0
100
AcDbEntity
  8
linea-spessa
100
AcDbLine
 10
140.6704913872527
 20
305.1935757971223
 30
0.0
 11
203.4337282539636
 21
242.4303389303968
 31
0.0
  0
LINE
  5
205
330
1B0
100
AcDbEntity
  8
linea-spessa
100
AcDbLine
 10
203.4337282539636
 20
242.4303389303968
 30
0.0
 11
203.4337282539927
 21
206.0328303235729
 31
0.0
  0
LINE
  5
206
330
1B0
100
AcDbEntity
  8
linea-spessa
100
AcDbLine
 10
-261.0480913610081
 20
322.3329952108616
 30
0.0
 11
-261.0480913609499
 21
178.3336044348107
 31
0.0
  0
LINE
  5
207
330
1B0
100
AcDbEntity
  8
linea-spessa
100
AcDbLine
 10
-261.0480913610081
 20
322.3329952108616
 30
0.0
 11
-261.0480913610081
 21
324.50373582459
 31
0.0
  0
LINE
  5
208
330
1B0
100
AcDbEntity
  8
linea-spessa
100
AcDbLine
 10
-261.0480913610081
 20
324.50373582459
 30
0.0
 11
-203.2906106907176
 21
324.50373582459
 31
0.0
  0
LINE
  5
209
330
1B0
100
AcDbEntity
  8
linea-spessa
100
AcDbLine
 10
-261.0480913609499
 20
178.3336044347816
 30
0.0
 11
-261.0480913609499
 21
176.1628638210531
 31
0.0
  0
LINE
  5
20A
330
1B0
100
AcDbEntity
  8
linea-spessa
100
AcDbLine
 10
-261.0480913609499
 20
176.1628638210531
 30
0.0
 11
-178.5879356234218
 21
176.1628638210386
 31
0.0
  0
LINE
  5
20B
330
1B0
100
AcDbEntity
  8
linea-spessa
100
AcDbLine
 10
-203.2906106907176
 20
320.8735762987781
 30
0.0
 11
-261.0480913610081
 21
320.8735762987781
 31
0.0
  0
LINE
  5
20C
330
1B0
100
AcDbEntity
  8
linea-spessa
100
AcDbLine
 10
-100.3306598226772
 20
190.3281566172518
 30
0.0
 11
-261.0480913609499
 21
190.3281566172081
 31
0.0
  0
LINE
  5
20D
330
1B0
100
AcDbEntity
  8
linea-spessa
100
AcDbLine
 10
-178.5879356234218
 20
184.2469574434362
 30
0.0
 11
-261.0480913609499
 21
184.2469574433489
 31
0.0
  0
LINE
  5
20E
330
1B0
100
AcDbEntity
  8
linea-spessa
100
AcDbLine
 10
-178.5879356234218
 20
179.7930233469378
 30
0.0
 11
-261.0480913609499
 21
179.7930233468651
 31
0.0
  0
LINE
  5
20F
330
1B0
100
AcDbEntity
  8
linea-spessa
100
AcDbLine
 10
-203.2906106907176
 20
316.4196422022797
 30
0.0
 11
-261.0480913610081
 21
316.4196422022942
 31
0.0
  0
LINE
  5
210
330
1B0
100
AcDbEntity
  8
linea-spessa
100
AcDbLine
 10
-202.0329036278417
 20
310.3384430284641
 30
0.0
 11
-261.0480913610081
 21
310.338443028435
 31
0.0
  0
LINE
  5
211
330
1B0
100
AcDbEntity
  8
linea-spessa
100
AcDbLine
 10
-114.1946228299057
 20
302.7797180832858
 30
0.0
 11
-261.0480913610081
 21
302.7797180832422
 31
0.0
  0
LINE
  5
212
330
1B0
100
AcDbEntity
  8
linea-spessa
100
AcDbLine
 10
-100.3306598227355
 20
284.005973129184
 30
0.0
 11
-261.0480913610081
 21
284.005973129184
 31
0.0
  0
LINE
  5
213
330
1B0
100
AcDbEntity
  8
linea-spessa
100
AcDbLine
 10
-104.0947560876957
 20
293.9295882608421
 30
0.0
 11
-261.0480913610081
 21
293.9295882607257
 31
0.0
  0
LINE
  5
214
330
1B0
100
AcDbEntity
  8
linea-spessa
100
AcDbLine
 10
-100.3306598227063
 20
273.2532250275836
 30
0.0
 11
-261.0480913609499
 21
273.2532250275836
 31
0.0
  0
LINE
  5
215
330
1B0
100
AcDbEntity
  8
linea-spessa
100
AcDbLine
 10
-100.3306598227063
 20
261.9361123005074
 30
0.0
 11
-261.0480913609499
 21
261.9361123005656
 31
0.0
  0
LINE
  5
216
330
1B0
100
AcDbEntity
  8
linea-spessa
100
AcDbLine
 10
-100.3306598227063
 20
250.3332998228288
 30
0.0
 11
-261.0480913609499
 21
250.3332998228288
 31
0.0
  0
LINE
  5
217
330
1B0
100
AcDbEntity
  8
linea-spessa
100
AcDbLine
 10
-100.3306598227063
 20
238.7304873451503
 30
0.0
 11
-261.0480913609499
 21
238.7304873450776
 31
0.0
  0
LINE
  5
218
330
1B0
100
AcDbEntity
  8
linea-spessa
100
AcDbLine
 10
-100.3306598226772
 20
227.4133746180596
 30
0.0
 11
-261.0480913609499
 21
227.4133746180596
 31
0.0
  0
LINE
  5
219
330
1B0
100
AcDbEntity
  8
linea-spessa
100
AcDbLine
 10
-100.3306598226772
 20
216.6606265166338
 30
0.0
 11
-261.0480913609499
 21
216.6606265164592
 31
0.0
  0
LINE
  5
21A
330
1B0
100
AcDbEntity
  8
linea-spessa
100
AcDbLine
 10
-100.3306598227063
 20
206.7370113848738
 30
0.0
 11
-261.0480913609499
 21
206.7370113849174
 31
0.0
  0
LINE
  5
21B
330
1B0
100
AcDbEntity
  8
linea-spessa
100
AcDbLine
 10
-100.3306598226772
 20
197.8868815626338
 30
0.0
 11
-261.0480913609499
 21
197.8868815624009
 31
0.0
  0
LINE
  5
21C
330
1B0
100
AcDbEntity
  8
linea-spessa
100
AcDbLine
 10
-265.9367952837492
 20
329.5329647496546
 30
0.0
 11
-265.9367952837201
 21
171.1336348960176
 31
0.0
  0
LINE
  5
21D
330
1B0
100
AcDbEntity
  8
linea-spessa
100
AcDbLine
 10
-265.9367952837201
 20
171.1336348960176
 30
0.0
 11
-287.6454178218264
 21
171.1336348960176
 31
0.0
  0
LINE
  5
21E
330
1B0
100
AcDbEntity
  8
linea-spessa
100
AcDbLine
 10
-265.9367952837201
 20
329.5329647496255
 30
0.0
 11
-287.6454178218264
 21
329.5329647496255
 31
0.0
  0
ARC
  5
21F
330
1B0
100
AcDbEntity
  8
linea-spessa
100
AcDbCircle
 10
-287.5757165924296
 20
243.5884951128537
 30
0.0
 40
72.4548937429526
100
AcDbArc
 50
225.8978023822156
 51
269.944881750611
  0
LINE
  5
220
330
1B0
100
AcDbEntity
  8
linea-spessa
100
AcDbLine
 10
-338.0
 20
191.5586645333242
 30
0.0
 11
-338.0
 21
309.107935112319
 31
0.0
  0
ARC
  5
221
330
1B0
100
AcDbEntity
  8
linea-spessa
100
AcDbCircle
 10
-287.5757165924296
 20
257.078104532804
 30
0.0
 40
72.4548937429526
100
AcDbArc
 50
90.05511824938899
 51
134.1021976177844
  0
LINE
  5
222
330
1B0
100
AcDbEntity
  8
linea-spessa
100
AcDbLine
 10
-326.737966693705
 20
191.7856125388498
 30
0.0
 11
-326.737966693705
 21
208.5022107779951
 31
0.0
  0
ARC
  5
223
330
1B0
100
AcDbEntity
  8
linea-spessa
100
AcDbCircle
 10
-320.3699846002273
 20
247.899690291626
 30
0.0
 40
56.47425004359735
100
AcDbArc
 50
263.5256134084903
 51
291.1919351891835
  0
ARC
  5
224
330
1B0
100
AcDbEntity
  8
linea-spessa
100
AcDbCircle
 10
-320.3699846002273
 20
152.3881330252479
 30
0.0
 40
56.47425004359735
100
AcDbArc
 50
68.80806481081643
 51
96.47438659150967
  0
LINE
  5
225
330
1B0
100
AcDbEntity
  8
linea-spessa
100
AcDbLine
 10
-326.737966693705
 20
308.8809871067933
 30
0.0
 11
-326.737966693705
 21
292.1643888676481
 31
0.0
  0
ARC
  5
226
330
1B0
100
AcDbEntity
  8
linea-spessa
100
AcDbCircle
 10
-320.3699846002273
 20
252.7669093540317
 30
0.0
 40
56.47425004359735
100
AcDbArc
 50
68.80806481081643
 51
96.47438659150967
  0
ARC
  5
227
330
1B0
100
AcDbEntity
  8
linea-spessa
100
AcDbCircle
 10
-320.3699846002273
 20
348.2784666204097
 30
0.0
 40
56.47425004359735
100
AcDbArc
 50
263.5256134084903
 51
291.1919351891835
  0
LINE
  5
228
330
1B0
100
AcDbEntity
  8
linea-spessa
100
AcDbLine
 10
-265.9367952837492
 20
318.8944555837079
 30
0.0
 11
-261.0480913610081
 21
318.8944555836788
 31
0.0
  0
LINE
  5
229
330
1B0
100
AcDbEntity
  8
linea-spessa
100
AcDbLine
 10
-265.9367952837492
 20
181.7721440619352
 30
0.0
 11
-261.0480913610081
 21
181.7721440619643
 31
0.0
  0
LINE
  5
22A
330
1B0
100
AcDbEntity
  8
linea-spessa
100
AcDbLine
 10
-100.3306598226772
 20
176.1628638210386
 30
0.0
 11
-100.3306598226772
 21
285.8821459998289
 31
0.0
  0
LINE
  5
22B
330
1B0
100
AcDbEntity
  8
linea-spessa
100
AcDbLine
 10
-100.3306598226772
 20
184.2469574435527
 30
0.0
 11
-77.67873380507808
 21
184.2469574435527
 31
0.0
  0
LINE
  5
22C
330
1B0
100
AcDbEntity
  8
linea-spessa
100
AcDbLine
 10
-100.3306598226772
 20
190.7421464062208
 30
0.0
 11
-100.3306598226772
 21
137.4175946090545
 31
0.0
  0
LINE
  5
22D
330
1B0
100
AcDbEntity
  8
linea-spessa
100
AcDbLine
 10
-100.3306598226772
 20
137.4175946090545
 30
0.0
 11
-178.5879356234218
 21
137.4175946090545
 31
0.0
  0
LINE
  5
22E
330
1B0
100
AcDbEntity
  8
linea-spessa
100
AcDbLine
 10
-178.5879356234218
 20
137.4175946090545
 30
0.0
 11
-178.5879356234218
 21
190.7421464062354
 31
0.0
  0
LINE
  5
22F
330
1B0
100
AcDbEntity
  8
linea-spessa
100
AcDbLine
 10
-178.5879356234218
 20
147.3552479623613
 30
0.0
 11
-181.925096046325
 21
147.3552479623613
 31
0.0
  0
LINE
  5
230
330
1B0
100
AcDbEntity
  8
linea-spessa
100
AcDbLine
 10
-181.925096046325
 20
147.3552479623613
 30
0.0
 11
-181.925096046325
 21
134.0804341861658
 31
0.0
  0
LINE
  5
231
330
1B0
100
AcDbEntity
  8
linea-spessa
100
AcDbLine
 10
-96.99349939980312
 20
134.0804341861658
 30
0.0
 11
-181.925096046325
 21
134.0804341861658
 31
0.0
  0
LINE
  5
232
330
1B0
100
AcDbEntity
  8
linea-spessa
100
AcDbLine
 10
-100.3306598226772
 20
147.3552479623613
 30
0.0
 11
-96.99349939980312
 21
147.3552479623613
 31
0.0
  0
LINE
  5
233
330
1B0
100
AcDbEntity
  8
linea-spessa
100
AcDbLine
 10
-96.99349939980312
 20
147.3552479623613
 30
0.0
 11
-96.99349939980312
 21
134.0804341861658
 31
0.0
  0
ARC
  5
234
330
1B0
100
AcDbEntity
  8
linea-spessa
100
AcDbCircle
 10
-139.4592977230786
 20
314.5027628045209
 30
0.0
 40
185.3525308467671
100
AcDbArc
 50
256.7554222267232
 51
283.2445777732768
  0
CIRCLE
  5
235
330
1B0
100
AcDbEntity
  8
linea-spessa
100
AcDbCircle
 10
-158.7571064495132
 20
165.8809384759952
 30
0.0
 40
10.19233601023006
  0
CIRCLE
  5
236
330
1B0
100
AcDbEntity
  8
linea-spessa
100
AcDbCircle
 10
-120.1614889965858
 20
165.8809384759952
 30
0.0
 40
10.19233601023006
  0
CIRCLE
  5
237
330
1B0
100
AcDbEntity
  8
linea-spessa
100
AcDbCircle
 10
-158.7571064495132
 20
165.8809384759952
 30
0.0
 40
6.115396366825734
  0
CIRCLE
  5
238
330
1B0
100
AcDbEntity
  8
linea-spessa
100
AcDbCircle
 10
-120.1614889965858
 20
165.8809384759952
 30
0.0
 40
6.115396366825734
  0
LINE
  5
239
330
1B0
100
AcDbEntity
  8
linea-spessa
100
AcDbLine
 10
203.4337282539636
 20
242.4303389303968
 30
0.0
 11
203.4337282539636
 21
353.6838348941674
 31
0.0
  0
LINE
  5
23A
330
1B0
100
AcDbEntity
  8
linea-spessa
100
AcDbLine
 10
205.4337282539636
 20
206.0328303235729
 30
0.0
 11
205.4337282539636
 21
353.6838348941674
 31
0.0
  0
LINE
  5
23B
330
1B0
100
AcDbEntity
  8
linea-spessa
100
AcDbLine
 10
203.4337282539636
 20
353.6838348941674
 30
0.0
 11
205.4337282539636
 21
353.6838348941674
 31
0.0
  0
LINE
  5
23C
330
1B0
100
AcDbEntity
  8
linea-spessa
100
AcDbLine
 10
205.4337282539636
 20
353.6838348941674
 30
0.0
 11
205.4337282539636
 21
356.8464287756214
 31
0.0
  0
LINE
  5
23D
330
1B0
100
AcDbEntity
  8
linea-spessa
100
AcDbLine
 10
18.37282243414665
 20
580.8427173640374
 30
0.0
 11
-18.37282243411755
 21
580.8427173640374
 31
0.0
  0
CIRCLE
  5
23E
330
1B0
100
AcDbEntity
  8
linea-spessa
100
AcDbCircle
 10
0.0
 20
567.5871602875267
 30
0.0
 40
6.77573897811817
  0
LINE
  5
23F
330
1B0
100
AcDbEntity
  8
linea-spessa
100
AcDbLine
 10
-18.37282243411755
 20
580.8427173640374
 30
0.0
 11
-30.5806056415895
 21
555.0551867029425
 31
0.0
  0
LINE
  5
240
330
1B0
100
AcDbEntity
  8
linea-spessa
100
AcDbLine
 10
18.37282243414665
 20
580.8427173640374
 30
0.0
 11
30.58060564161861
 21
555.0551867029425
 31
0.0
  0
LINE
  5
241
330
1B0
100
AcDbEntity
  8
linea-spessa
100
AcDbLine
 10
210.7288333342876
 20
360.3154507536674
 30
0.0
 11
262.6595067402231
 21
360.3154507536674
 31
0.0
  0
LINE
  5
242
330
1B0
100
AcDbEntity
  8
linea-spessa
100
AcDbLine
 10
210.7288333342876
 20
360.3154507536674
 30
0.0
 11
210.7288333342876
 21
310.6470789510932
 31
0.0
  0
LINE
  5
243
330
1B0
100
AcDbEntity
  8
linea-spessa
100
AcDbLine
 10
210.7288333342876
 20
310.6470789510932
 30
0.0
 11
217.6496094333415
 21
310.6470789510932
 31
0.0
  0
LWPOLYLINE
  5
244
330
1B0
100
AcDbEntity
  8
linea-spessa
100
AcDbPolyline
 90
        4
 70
     1
 43
0.0
 10
215.6305898035935
 20
422.4764933085098
 10
257.876221361541
 20
422.4764933085098
 10
257.876221361541
 20
369.8481258060783
 10
215.6305898035935
 20
369.8481258060783
  0
LINE
  5
245
330
1B0
100
AcDbEntity
  8
linea-spessa
100
AcDbLine
 10
205.4337282539636
 20
356.8464287756214
 30
0.0
 11
210.7288333342876
 21
356.846428775636
 31
0.0
  0
LINE
  5
246
330
1B0
100
AcDbEntity
  8
linea-spessa
100
AcDbLine
 10
262.6595067402231
 20
360.3154507536674
 30
0.0
 11
262.6595067402523
 21
330.5045742714137
 31
0.0
  0
LINE
  5
247
330
1B0
100
AcDbEntity
  8
linea-spessa
100
AcDbLine
 10
221.6247922316543
 20
369.8481258060783
 30
0.0
 11
221.6247922316543
 21
360.315450753682
 31
0.0
  0
LINE
  5
248
330
1B0
100
AcDbEntity
  8
linea-spessa
100
AcDbLine
 10
251.8820189334801
 20
369.8481258060783
 30
0.0
 11
251.8820189334801
 21
360.315450753682
 31
0.0
  0
LWPOLYLINE
  5
249
330
1B0
100
AcDbEntity
  8
linea-spessa
100
AcDbPolyline
 90
        6
 70
     0
 43
0.0
 10
277.99034215149
 20
378.7754501796881
 10
267.626159155363
 20
378.7754501796881
 10
267.626159155363
 20
466.7854765054653
 10
324.6923808589054
 20
466.7854765054653
 10
324.6923808589054
 20
378.7754501796881
 10
284.0324885377486
 20
378.7754501796881
  0
LWPOLYLINE
  5
24A
330
1B0
100
AcDbEntity
  8
linea-spessa
100
AcDbPolyline
 90
        4
 70
     1
 43
0.0
 10
271.3900638940686
 20
452.5124825298989
 10
271.3900638940686
 20
388.9698389203841
 10
292.3904565677803
 20
388.9698389203841
 10
292.3904565677803
 20
452.5124825298989
  0
LINE
  5
24B
330
1B0
100
AcDbEntity
  8
linea-spessa
100
AcDbLine
 10
271.2832601639675
 20
284.4333958740026
 30
0.0
 11
227.6496094333706
 21
284.4333958740172
 31
0.0
  0
LINE
  5
24C
330
1B0
100
AcDbEntity
  8
linea-spessa
100
AcDbLine
 10
271.2832601639675
 20
194.512157453224
 30
0.0
 11
227.6496094332542
 21
194.512157453224
 31
0.0
  0
LINE
  5
24D
330
1B0
100
AcDbEntity
  8
linea-spessa
100
AcDbLine
 10
271.2832601639675
 20
284.4333958740026
 30
0.0
 11
271.2832601639675
 21
194.512157453224
 31
0.0
  0
LINE
  5
24E
330
1B0
100
AcDbEntity
  8
linea-spessa
100
AcDbLine
 10
210.2667099862592
 20
194.512157453224
 30
0.0
 11
210.2667099862592
 21
163.3804148177441
 31
0.0
  0
LINE
  5
24F
330
1B0
100
AcDbEntity
  8
linea-spessa
100
AcDbLine
 10
210.2667099862592
 20
163.3804148177441
 30
0.0
 11
217.6496094333415
 21
163.3804148177441
 31
0.0
  0
LWPOLYLINE
  5
250
330
1B0
100
AcDbEntity
  8
linea-spessa
100
AcDbPolyline
 90
        4
 70
     0
 43
0.0
 10
217.6496094332833
 20
130.9311585139949
 10
212.0052053593099
 20
130.9311585139949
 10
212.0052053593099
 20
163.3804148177441
 10
217.6496094333124
 20
163.3804148177441
  0
LWPOLYLINE
  5
251
330
1B0
100
AcDbEntity
  8
linea-spessa
100
AcDbPolyline
 90
        4
 70
     0
 43
0.0
 10
227.6496094332833
 20
130.9311585139949
 10
250.8768865307211
 20
130.9311585139949
 10
250.8768865307211
 20
122.1015835883154
 10
227.6496094332833
 20
122.1015835883154
  0
LINE
  5
252
330
1B0
100
AcDbEntity
  8
linea-spessa
100
AcDbLine
 10
264.450278431701
 20
194.512157453224
 30
0.0
 11
264.450278431701
 21
163.3804148177441
 31
0.0
  0
LWPOLYLINE
  5
253
330
1B0
100
AcDbEntity
  8
linea-spessa
100
AcDbPolyline
 90
        4
 70
     1
 43
0.0
 10
262.6595067402231
 20
354.4256556649634
 10
289.3402590810438
 20
354.4256556649634
 10
289.3402590810438
 20
341.1635316838801
 10
262.6595067402231
 20
341.1635316838801
  0
LWPOLYLINE
  5
254
330
1B0
100
AcDbEntity
  8
linea-spessa
100
AcDbPolyline
 90
        4
 70
     1
 43
0.0
 10
284.0324885377486
 20
388.9698389203841
 10
277.99034215149
 20
388.9698389203841
 10
277.99034215149
 20
354.4256556649634
 10
284.0324885377486
 20
354.4256556649634
  0
LINE
  5
255
330
1B0
100
AcDbEntity
  8
linea-spessa
100
AcDbLine
 10
362.0
 20
320.5045742714137
 30
0.0
 11
231.6496094333997
 21
320.5045742714137
 31
0.0
  0
LINE
  5
256
330
1B0
100
AcDbEntity
  8
linea-spessa
100
AcDbLine
 10
362.0
 20
330.5045742714137
 30
0.0
 11
231.6496094333416
 21
330.5045742714137
 31
0.0
  0
LINE
  5
257
330
1B0
100
AcDbEntity
  8
linea-spessa
100
AcDbLine
 10
217.6496094333415
 20
316.5045742714137
 30
0.0
 11
217.6496094332833
 21
98.53776087146252
 31
0.0
  0
LINE
  5
258
330
1B0
100
AcDbEntity
  8
linea-spessa
100
AcDbLine
 10
227.6496094333997
 20
316.5045742714137
 30
0.0
 11
227.6496094332542
 21
98.53776087141888
 31
0.0
  0
ARC
  5
259
330
1B0
100
AcDbEntity
  8
linea-spessa
100
AcDbCircle
 10
362.0
 20
325.5045742714283
 30
0.0
 40
5.000000000014551
100
AcDbArc
 50
270.0
 51
90.0
  0
ARC
  5
25A
330
1B0
100
AcDbEntity
  8
linea-spessa
100
AcDbCircle
 10
231.6496094333416
 20
316.5045742714137
 30
0.0
 40
14.0
100
AcDbArc
 50
90.0
 51
180.0
  0
ARC
  5
25B
330
1B0
100
AcDbEntity
  8
linea-spessa
100
AcDbCircle
 10
231.6496094333997
 20
316.5045742714137
 30
0.0
 40
4.0
100
AcDbArc
 50
90.0
 51
180.0
  0
LINE
  5
25C
330
1B0
100
AcDbEntity
  8
linea-spessa
100
AcDbLine
 10
262.6595067402523
 20
320.5045742714137
 30
0.0
 11
262.6595067402231
 21
310.6470789510932
 31
0.0
  0
LINE
  5
25D
330
1B0
100
AcDbEntity
  8
linea-spessa
100
AcDbLine
 10
227.6496094333416
 20
310.6470789510786
 30
0.0
 11
262.6595067402231
 21
310.6470789510932
 31
0.0
  0
LINE
  5
25E
330
1B0
100
AcDbEntity
  8
linea-spessa
100
AcDbLine
 10
217.6496094332833
 20
284.4333958740026
 30
0.0
 11
203.4337282539636
 21
284.4333958740026
 31
0.0
  0
LINE
  5
25F
330
1B0
100
AcDbEntity
  8
linea-spessa
100
AcDbLine
 10
217.6496094333124
 20
194.512157453224
 30
0.0
 11
203.4337282539927
 21
194.512157453224
 31
0.0
  0
ARC
  5
260
330
1B0
100
AcDbEntity
  8
linea-spessa
100
AcDbCircle
 10
222.6496094332834
 20
98.53776087141888
 30
0.0
 40
4.999999999970896
100
AcDbArc
 50
180.0
 51
0.0
  0
LWPOLYLINE
  5
261
330
1B0
100
AcDbEntity
  8
linea-spessa
100
AcDbPolyline
 90
        4
 70
     0
 43
0.0
 10
227.6496094332833
 20
163.3804148177441
 10
260.6929590956424
 20
163.3804148177441
 10
260.6929590956424
 20
130.9311585139949
 10
227.6496094332833
 20
130.9311585139949
  0
LINE
  5
262
330
1B0
100
AcDbEntity
  8
linea-spessa
100
AcDbLine
 10
227.6496094332833
 20
163.3804148177441
 30
0.0
 11
264.4502784317301
 21
163.3804148177296
 31
0.0
  0
ENDBLK
  5
263
330
1B0
100
AcDbEntity
  8
0
100
AcDbBlockEnd
  0
BLOCK
  5
266
330
265
100
AcDbEntity
  8
0
100
AcDbBlockBegin
  2
rl55-85mblu3
 70
     0
 10
0.0
 20
0.0
 30
0.0
  3
rl55-85mblu3
  1

  0
LINE
  5
267
330
265
100
AcDbEntity
  8
linea-spessa
100
AcDbLine
 10
-364.9999999999709
 20
-92.49461210484151
 30
0.0
 11
-364.9999999999709
 21
-129.6576137644879
 31
0.0
  0
LINE
  5
268
330
265
100
AcDbEntity
  8
linea-spessa
100
AcDbLine
 10
-364.9999999999709
 20
-92.49461210484151
 30
0.0
 11
-364.9999999999127
 21
129.6576137644879
 31
0.0
  0
LINE
  5
269
330
265
100
AcDbEntity
  8
linea-spessa
100
AcDbLine
 10
-364.9999999999709
 20
-129.6576137644879
 30
0.0
 11
-379.0160802445898
 21
-129.6576137644879
 31
0.0
  0
LINE
  5
26A
330
265
100
AcDbEntity
  8
linea-spessa
100
AcDbLine
 10
-379.0160802445898
 20
-129.6576137644879
 30
0.0
 11
-379.0160802445607
 21
129.657613764517
 31
0.0
  0
LINE
  5
26B
330
265
100
AcDbEntity
  8
linea-spessa
100
AcDbLine
 10
-379.0160802445898
 20
-92.86033312568907
 30
0.0
 11
-416.0192178322758
 21
-92.86033312568907
 31
0.0
  0
LINE
  5
26C
330
265
100
AcDbEntity
  8
linea-spessa
100
AcDbLine
 10
-364.9999999999709
 20
129.657613764517
 30
0.0
 11
-379.0160802445898
 21
129.657613764517
 31
0.0
  0
LINE
  5
26D
330
265
100
AcDbEntity
  8
linea-spessa
100
AcDbLine
 10
-379.0160802445898
 20
92.86033312571817
 30
0.0
 11
-416.0192178322758
 21
92.86033312571817
 31
0.0
  0
LINE
  5
26E
330
265
100
AcDbEntity
  8
linea-spessa
100
AcDbLine
 10
-416.0192178322758
 20
92.86033312570362
 30
0.0
 11
-416.0192178322758
 21
-92.86033312570362
 31
0.0
  0
LINE
  5
26F
330
265
100
AcDbEntity
  8
linea-spessa
100
AcDbLine
 10
-435.5315231530112
 20
92.86033312570362
 30
0.0
 11
-435.5315231530112
 21
-92.86033312570362
 31
0.0
  0
LINE
  5
270
330
265
100
AcDbEntity
  8
linea-spessa
100
AcDbLine
 10
-527.6476209666289
 20
-92.86033312565995
 30
0.0
 11
-435.5315231530112
 21
-92.86033312568907
 31
0.0
  0
LINE
  5
271
330
265
100
AcDbEntity
  8
linea-spessa
100
AcDbLine
 10
-472.5346607407264
 20
92.86033312571817
 30
0.0
 11
-435.5315231530112
 21
92.86033312571817
 31
0.0
  0
LINE
  5
272
330
265
100
AcDbEntity
  8
linea-spessa
100
AcDbLine
 10
-364.9999999999709
 20
30.58060564161861
 30
0.0
 11
-416.0192178322758
 21
30.58060564161861
 31
0.0
  0
LINE
  5
273
330
265
100
AcDbEntity
  8
linea-spessa
100
AcDbLine
 10
-364.9999999999709
 20
-30.58060564161861
 30
0.0
 11
-416.0192178322758
 21
-30.58060564161861
 31
0.0
  0
LINE
  5
274
330
265
100
AcDbEntity
  8
linea-spessa
100
AcDbLine
 10
-364.9999999999709
 20
-18.37282243414665
 30
0.0
 11
-416.0192178322758
 21
-18.3728224341321
 31
0.0
  0
LINE
  5
275
330
265
100
AcDbEntity
  8
linea-spessa
100
AcDbLine
 10
-364.9999999999709
 20
18.37282243414665
 30
0.0
 11
-416.0192178322758
 21
18.3728224341321
 31
0.0
  0
LINE
  5
276
330
265
100
AcDbEntity
  8
linea-spessa
100
AcDbLine
 10
-416.0192178322758
 20
6.77573897811817
 30
0.0
 11
-427.9976641849207
 21
6.77573897811817
 31
0.0
  0
LINE
  5
277
330
265
100
AcDbEntity
  8
linea-spessa
100
AcDbLine
 10
-416.0192178322758
 20
-6.77573897811817
 30
0.0
 11
-427.9976641849207
 21
-6.77573897811817
 31
0.0
  0
LINE
  5
278
330
265
100
AcDbEntity
  8
linea-spessa
100
AcDbLine
 10
-427.9976641849207
 20
6.77573897811817
 30
0.0
 11
-427.9976641849498
 21
-6.77573897811817
 31
0.0
  0
LINE
  5
279
330
265
100
AcDbEntity
  8
linea-spessa
100
AcDbLine
 10
-730.7790527025063
 20
-163.8943616802862
 30
0.0
 11
-537.2018544251331
 21
-94.52064402356336
 31
0.0
  0
ARC
  5
27A
330
265
100
AcDbEntity
  8
linea-spessa
100
AcDbCircle
 10
-527.6476209666289
 20
-121.1803331256669
 30
0.0
 40
28.32
100
AcDbArc
 50
90.0
 51
109.7165384749626
  0
ARC
  5
27B
330
265
100
AcDbEntity
  8
linea-spessa
100
AcDbCircle
 10
-935.6977677800751
 20
346.4045181969705
 30
0.0
 40
549.906016145503
100
AcDbArc
 50
271.2795456517641
 51
291.8787203872339
  0
LINE
  5
27C
330
265
100
AcDbEntity
  8
linea-spessa
100
AcDbLine
 10
-923.4181309076085
 20
-203.3643760770792
 30
0.0
 11
-965.4730761210085
 21
-203.2168453043123
 31
0.0
  0
ARC
  5
27D
330
265
100
AcDbEntity
  8
linea-spessa
100
AcDbCircle
 10
-962.0653835870326
 20
-132.2386907908367
 30
0.0
 40
71.05990984046333
100
AcDbArc
 50
189.2569439491004
 51
267.2513149432536
  0
LINE
  5
27E
330
265
100
AcDbEntity
  8
linea-spessa
100
AcDbLine
 10
-527.6476209666289
 20
92.86033312568907
 30
0.0
 11
-435.5315231530112
 21
92.86033312571817
 31
0.0
  0
LINE
  5
27F
330
265
100
AcDbEntity
  8
linea-spessa
100
AcDbLine
 10
-730.7790527025063
 20
163.8943616803153
 30
0.0
 11
-537.2018544251331
 21
94.52064402359246
 31
0.0
  0
ARC
  5
280
330
265
100
AcDbEntity
  8
linea-spessa
100
AcDbCircle
 10
-527.6476209666289
 20
121.180333125696
 30
0.0
 40
28.32
100
AcDbArc
 50
250.2834615250374
 51
270.0
  0
ARC
  5
281
330
265
100
AcDbEntity
  8
linea-spessa
100
AcDbCircle
 10
-935.6977677800751
 20
-346.4045181969414
 30
0.0
 40
549.906016145503
100
AcDbArc
 50
68.12127961276608
 51
88.72045434823586
  0
LINE
  5
282
330
265
100
AcDbEntity
  8
linea-spessa
100
AcDbLine
 10
-923.4181309076085
 20
203.3643760771083
 30
0.0
 11
-965.4730761210085
 21
203.2168453043269
 31
0.0
  0
ARC
  5
283
330
265
100
AcDbEntity
  8
linea-spessa
100
AcDbCircle
 10
-962.0653835870326
 20
132.2386907908658
 30
0.0
 40
71.05990984046333
100
AcDbArc
 50
92.74868505674641
 51
170.7430560508995
  0
ARC
  5
284
330
265
100
AcDbEntity
  8
linea-spessa
100
AcDbCircle
 10
162.0970482106495
 20
-35.1404111510783
 30
0.0
 40
1207.60843500475
100
AcDbArc
 50
171.4849333089167
 51
178.3325046070323
  0
LINE
  5
285
330
265
100
AcDbEntity
  8
linea-spessa
100
AcDbLine
 10
-654.5077435226994
 20
261.0480913609645
 30
0.0
 11
-798.5071342987648
 21
261.0480913609062
 31
0.0
  0
LINE
  5
286
330
265
100
AcDbEntity
  8
linea-spessa
100
AcDbLine
 10
-654.5077435226994
 20
261.0480913609645
 30
0.0
 11
-652.3370029089565
 21
261.0480913609645
 31
0.0
  0
LINE
  5
287
330
265
100
AcDbEntity
  8
linea-spessa
100
AcDbLine
 10
-652.3370029089565
 20
261.0480913609645
 30
0.0
 11
-652.3370029088982
 21
135.7824938403937
 31
0.0
  0
LINE
  5
288
330
265
100
AcDbEntity
  8
linea-spessa
100
AcDbLine
 10
-798.5071342987648
 20
261.0480913609062
 30
0.0
 11
-800.6778749125079
 21
261.0480913609062
 31
0.0
  0
LINE
  5
289
330
265
100
AcDbEntity
  8
linea-spessa
100
AcDbLine
 10
-800.6778749125079
 20
261.0480913609062
 30
0.0
 11
-800.6778749125079
 21
186.6679488495574
 31
0.0
  0
LINE
  5
28A
330
265
100
AcDbEntity
  8
linea-spessa
100
AcDbLine
 10
-655.9671624347974
 20
137.0834614349005
 30
0.0
 11
-655.9671624347974
 21
261.0480913609645
 31
0.0
  0
LINE
  5
28B
330
265
100
AcDbEntity
  8
linea-spessa
100
AcDbLine
 10
-786.5125821163237
 20
181.3281380932312
 30
0.0
 11
-786.5125821163529
 21
261.0480913609062
 31
0.0
  0
LINE
  5
28C
330
265
100
AcDbEntity
  8
linea-spessa
100
AcDbLine
 10
-792.5937812901393
 20
184.5548735118063
 30
0.0
 11
-792.5937812901975
 21
261.0480913609062
 31
0.0
  0
LINE
  5
28D
330
265
100
AcDbEntity
  8
linea-spessa
100
AcDbLine
 10
-797.0477153866377
 20
185.7353032450628
 30
0.0
 11
-797.0477153866959
 21
261.0480913609062
 31
0.0
  0
LINE
  5
28E
330
265
100
AcDbEntity
  8
linea-spessa
100
AcDbLine
 10
-660.4210965312959
 20
138.6796513230656
 30
0.0
 11
-660.4210965312668
 21
261.0480913609645
 31
0.0
  0
LINE
  5
28F
330
265
100
AcDbEntity
  8
linea-spessa
100
AcDbLine
 10
-666.5022957050532
 20
140.8590164458874
 30
0.0
 11
-666.5022957051114
 21
261.0480913609645
 31
0.0
  0
LINE
  5
290
330
265
100
AcDbEntity
  8
linea-spessa
100
AcDbLine
 10
-674.0610206502897
 20
143.5678936011681
 30
0.0
 11
-674.0610206503188
 21
261.0480913609645
 31
0.0
  0
LINE
  5
291
330
265
100
AcDbEntity
  8
linea-spessa
100
AcDbLine
 10
-692.834765604377
 20
150.2959818956151
 30
0.0
 11
-692.834765604377
 21
261.0480913609645
 31
0.0
  0
LINE
  5
292
330
265
100
AcDbEntity
  8
linea-spessa
100
AcDbLine
 10
-682.9111504727625
 20
146.7395812431059
 30
0.0
 11
-682.9111504728498
 21
261.0480913609645
 31
0.0
  0
LINE
  5
293
330
265
100
AcDbEntity
  8
linea-spessa
100
AcDbLine
 10
-703.5875137059774
 20
154.1495251717715
 30
0.0
 11
-703.5875137059774
 21
261.0480913609354
 31
0.0
  0
LINE
  5
294
330
265
100
AcDbEntity
  8
linea-spessa
100
AcDbLine
 10
-714.90462643301
 20
158.2053240468231
 30
0.0
 11
-714.90462643301
 21
261.0480913609354
 31
0.0
  0
LINE
  5
295
330
265
100
AcDbEntity
  8
linea-spessa
100
AcDbLine
 10
-726.5074389107467
 20
162.3635112921183
 30
0.0
 11
-726.5074389107467
 21
261.0480913609354
 31
0.0
  0
LINE
  5
296
330
265
100
AcDbEntity
  8
linea-spessa
100
AcDbLine
 10
-738.1102513884543
 20
166.7775157434516
 30
0.0
 11
-738.1102513884834
 21
261.0480913609354
 31
0.0
  0
LINE
  5
297
330
265
100
AcDbEntity
  8
linea-spessa
100
AcDbLine
 10
-749.4273641155159
 20
170.9927791594236
 30
0.0
 11
-749.4273641155159
 21
261.0480913609354
 31
0.0
  0
LINE
  5
298
330
265
100
AcDbEntity
  8
linea-spessa
100
AcDbLine
 10
-760.1801122170582
 20
174.738628336403
 30
0.0
 11
-760.1801122171163
 21
261.0480913609062
 31
0.0
  0
LINE
  5
299
330
265
100
AcDbEntity
  8
linea-spessa
100
AcDbLine
 10
-770.1037273486435
 20
177.9762979725928
 30
0.0
 11
-770.1037273486435
 21
261.0480913609062
 31
0.0
  0
LINE
  5
29A
330
265
100
AcDbEntity
  8
linea-spessa
100
AcDbLine
 10
-778.9538571710872
 20
180.6893757916259
 30
0.0
 11
-778.9538571711455
 21
261.0480913609062
 31
0.0
  0
LINE
  5
29B
330
265
100
AcDbEntity
  8
linea-spessa
100
AcDbLine
 10
-647.3077739838918
 20
265.9367952837492
 30
0.0
 11
-805.7071038375434
 21
265.9367952837056
 31
0.0
  0
LINE
  5
29C
330
265
100
AcDbEntity
  8
linea-spessa
100
AcDbLine
 10
-805.7071038375434
 20
265.9367952837056
 30
0.0
 11
-805.7071038375434
 21
287.6454178218119
 31
0.0
  0
LINE
  5
29D
330
265
100
AcDbEntity
  8
linea-spessa
100
AcDbLine
 10
-647.30777398395
 20
265.9367952837056
 30
0.0
 11
-647.30777398395
 21
287.6454178218119
 31
0.0
  0
ARC
  5
29E
330
265
100
AcDbEntity
  8
linea-spessa
100
AcDbCircle
 10
-733.2522436207218
 20
287.5757165924006
 30
0.0
 40
72.4548937429526
100
AcDbArc
 50
135.8978023816169
 51
179.944881750611
  0
LINE
  5
29F
330
265
100
AcDbEntity
  8
linea-spessa
100
AcDbLine
 10
-785.2820742002514
 20
338.0
 30
0.0
 11
-667.732803621242
 21
338.0
 31
0.0
  0
ARC
  5
2A0
330
265
100
AcDbEntity
  8
linea-spessa
100
AcDbCircle
 10
-719.7626342007716
 20
287.5757165924006
 30
0.0
 40
72.4548937429526
100
AcDbArc
 50
0.0551182493889997
 51
44.10219761838312
  0
LINE
  5
2A1
330
265
100
AcDbEntity
  8
linea-spessa
100
AcDbLine
 10
-785.0551261946966
 20
326.7379666936904
 30
0.0
 11
-768.3385279555514
 21
326.7379666936904
 31
0.0
  0
ARC
  5
2A2
330
265
100
AcDbEntity
  8
linea-spessa
100
AcDbCircle
 10
-728.9410484419495
 20
320.3699846001837
 30
0.0
 40
56.47425004359735
100
AcDbArc
 50
173.5256134094128
 51
201.1919351888822
  0
ARC
  5
2A3
330
265
100
AcDbEntity
  8
linea-spessa
100
AcDbCircle
 10
-824.4526057083275
 20
320.3699846001837
 30
0.0
 40
56.47425004359735
100
AcDbArc
 50
338.8080648111178
 51
6.474386590587216
  0
LINE
  5
2A4
330
265
100
AcDbEntity
  8
linea-spessa
100
AcDbLine
 10
-667.9597516267676
 20
326.7379666936904
 30
0.0
 11
-684.6763498659129
 21
326.7379666936904
 31
0.0
  0
ARC
  5
2A5
330
265
100
AcDbEntity
  8
linea-spessa
100
AcDbCircle
 10
-724.0738293795438
 20
320.3699846001837
 30
0.0
 40
56.47425004359735
100
AcDbArc
 50
338.8080648111178
 51
6.474386590587216
  0
ARC
  5
2A6
330
265
100
AcDbEntity
  8
linea-spessa
100
AcDbCircle
 10
-628.5622721131367
 20
320.3699846001837
 30
0.0
 40
56.47425004359735
100
AcDbArc
 50
173.5256134094128
 51
201.1919351888822
  0
LINE
  5
2A7
330
265
100
AcDbEntity
  8
linea-spessa
100
AcDbLine
 10
-657.9462831498531
 20
265.9367952837492
 30
0.0
 11
-657.9462831498822
 21
261.0480913609645
 31
0.0
  0
LINE
  5
2A8
330
265
100
AcDbEntity
  8
linea-spessa
100
AcDbLine
 10
-795.0685946716403
 20
265.9367952837492
 30
0.0
 11
-795.0685946715821
 21
261.0480913609645
 31
0.0
  0
LINE
  5
2A9
330
265
100
AcDbEntity
  8
linea-spessa
100
AcDbLine
 10
-552.6859743384703
 20
100.0698046302423
 30
0.0
 11
-552.6859743384703
 21
191.9396706819534
 31
0.0
  0
LINE
  5
2AA
330
265
100
AcDbEntity
  8
linea-spessa
100
AcDbLine
 10
-552.6859743384703
 20
191.9396706819534
 30
0.0
 11
-478.5414356513356
 21
191.9396706819534
 31
0.0
  0
LINE
  5
2AB
330
265
100
AcDbEntity
  8
linea-spessa
100
AcDbLine
 10
-478.5414356513356
 20
191.9396706819534
 30
0.0
 11
-478.5414356512774
 21
92.86033312571817
 31
0.0
  0
LWPOLYLINE
  5
2AC
330
265
100
AcDbEntity
  8
linea-spessa
100
AcDbPolyline
 90
        4
 70
     1
 43
0.0
 10
-394.7114124585059
 20
-92.86033312568907
 10
-403.8113743949507
 20
-92.86033312568907
 10
-403.8113743949507
 20
-115.6449080238817
 10
-394.7114124585059
 20
-115.6449080238817
  0
LINE
  5
2AD
330
265
100
AcDbEntity
  8
linea-spessa
100
AcDbLine
 10
-783.3334075867606
 20
-214.0440510698681
 30
0.0
 11
-783.3334075867606
 21
-209.2452158166561
 31
0.0
  0
LINE
  5
2AE
330
265
100
AcDbEntity
  8
linea-spessa
100
AcDbLine
 10
-783.3334075867606
 20
-209.2452158166561
 30
0.0
 11
-672.3526041187287
 21
-209.2452158166561
 31
0.0
  0
LINE
  5
2AF
330
265
100
AcDbEntity
  8
linea-spessa
100
AcDbLine
 10
-672.3526041187287
 20
-214.0440510698681
 30
0.0
 11
-672.3526041187287
 21
-209.2452158166561
 31
0.0
  0
LINE
  5
2B0
330
265
100
AcDbEntity
  8
linea-spessa
100
AcDbLine
 10
-840.0800394764811
 20
-204.7082725699874
 30
0.0
 11
-777.0124929273151
 21
-204.7082725699729
 31
0.0
  0
LINE
  5
2B1
330
265
100
AcDbEntity
  8
linea-spessa
100
AcDbLine
 10
-605.9438382270164
 20
-195.2682725699706
 30
0.0
 11
-605.9438382270164
 21
-146.8024638654897
 31
0.0
  0
LINE
  5
2B2
330
265
100
AcDbEntity
  8
linea-spessa
100
AcDbLine
 10
-605.9438382270164
 20
-146.8024638654897
 30
0.0
 11
-624.012214651535
 21
-146.8024638654897
 31
0.0
  0
LINE
  5
2B3
330
265
100
AcDbEntity
  8
linea-spessa
100
AcDbLine
 10
-624.012214651535
 20
-146.8024638654897
 30
0.0
 11
-624.012214651535
 21
-125.6315262639255
 31
0.0
  0
LINE
  5
2B4
330
265
100
AcDbEntity
  8
linea-spessa
100
AcDbLine
 10
-605.9438382270164
 20
-146.8024638654897
 30
0.0
 11
-598.4153355102753
 21
-146.8024638654897
 31
0.0
  0
LINE
  5
2B5
330
265
100
AcDbEntity
  8
linea-spessa
100
AcDbLine
 10
-598.4153355102753
 20
-146.8024638654897
 30
0.0
 11
-598.4153355102753
 21
-116.4581800111336
 31
0.0
  0
ARC
  5
2B6
330
265
100
AcDbEntity
  8
linea-spessa
100
AcDbCircle
 10
-838.3368565651762
 20
-197.4482717388891
 30
0.0
 40
7.466344402034782
100
AcDbArc
 50
169.465557587866
 51
256.4984261420857
  0
ARC
  5
2B7
330
265
100
AcDbEntity
  8
linea-spessa
100
AcDbCircle
 10
-615.3838382270187
 20
-195.2682725699706
 30
0.0
 40
9.440000000000001
100
AcDbArc
 50
270.0
 51
0.0
  0
ARC
  5
2B8
330
265
100
AcDbEntity
  8
linea-spessa
100
AcDbCircle
 10
-750.1782143699529
 20
-306.1764610021492
 30
0.0
 40
174.5025706447109
100
AcDbArc
 50
38.82938039033265
 51
66.60727660020689
  0
ARC
  5
2B9
330
265
100
AcDbEntity
  8
linea-spessa
100
AcDbCircle
 10
-725.8862617651175
 20
-334.9003994886589
 30
0.0
 40
139.8709456050916
100
AcDbArc
 50
68.56014668227468
 51
111.4398533177253
  0
LINE
  5
2BA
330
265
100
AcDbEntity
  8
linea-spessa
100
AcDbLine
 10
-674.760030602949
 20
-204.7082725699729
 30
0.0
 11
-615.3838382270187
 21
-204.7082725699729
 31
0.0
  0
LINE
  5
2BB
330
265
100
AcDbEntity
  8
linea-spessa
100
AcDbLine
 10
-777.0124929273151
 20
-204.7082725699729
 30
0.0
 11
-777.0124929273151
 21
-209.2452158166707
 31
0.0
  0
LINE
  5
2BC
330
265
100
AcDbEntity
  8
linea-spessa
100
AcDbLine
 10
-674.7600306028616
 20
-204.708272570002
 30
0.0
 11
-674.7600306028616
 21
-209.2452158166707
 31
0.0
  0
LINE
  5
2BD
330
265
100
AcDbEntity
  8
linea-spessa
100
AcDbLine
 10
-605.9438382269872
 20
-194.2572751246334
 30
0.0
 11
-486.2025665064284
 21
-194.2572751246334
 31
0.0
  0
LINE
  5
2BE
330
265
100
AcDbEntity
  8
linea-spessa
100
AcDbLine
 10
-486.2025665064284
 20
-194.2572751246334
 30
0.0
 11
-486.2025665064284
 21
-174.4459026082622
 31
0.0
  0
LINE
  5
2BF
330
265
100
AcDbEntity
  8
linea-spessa
100
AcDbLine
 10
-486.2025665064284
 20
-149.7383540298469
 30
0.0
 11
-598.4153355102753
 21
-149.7383540298469
 31
0.0
  0
LINE
  5
2C0
330
265
100
AcDbEntity
  8
linea-spessa
100
AcDbLine
 10
-486.2025665064284
 20
-149.7383540298469
 30
0.0
 11
-486.2025665064284
 21
-125.6344989810459
 31
0.0
  0
LINE
  5
2C1
330
265
100
AcDbEntity
  8
linea-spessa
100
AcDbLine
 10
-486.2025665064284
 20
-125.6344989810459
 30
0.0
 11
-494.1358557495114
 21
-125.6344989810459
 31
0.0
  0
LINE
  5
2C2
330
265
100
AcDbEntity
  8
linea-spessa
100
AcDbLine
 10
-494.1358557495114
 20
-125.6344989810459
 30
0.0
 11
-494.1358557495114
 21
-117.3797634143557
 31
0.0
  0
LINE
  5
2C3
330
265
100
AcDbEntity
  8
linea-spessa
100
AcDbLine
 10
-494.1358557495114
 20
-117.3797634143557
 30
0.0
 11
-598.4153355102753
 21
-117.3797634143557
 31
0.0
  0
LINE
  5
2C4
330
265
100
AcDbEntity
  8
linea-spessa
100
AcDbLine
 10
-494.1358557495114
 20
-125.6344989810459
 30
0.0
 11
-598.4153355102753
 21
-125.6344989810459
 31
0.0
  0
LWPOLYLINE
  5
2C5
330
265
100
AcDbEntity
  8
linea-spessa
100
AcDbPolyline
 90
        4
 70
     1
 43
0.0
 10
-517.2242622533813
 20
-131.9889389371383
 10
-498.8528978470712
 20
-131.9889389371383
 10
-498.8528978470712
 20
-136.4901720267662
 10
-517.2242622533813
 20
-136.4901720267662
  0
LINE
  5
2C6
330
265
100
AcDbEntity
  8
linea-spessa
100
AcDbLine
 10
-511.8145800502097
 20
-131.9889389371383
 30
0.0
 11
-511.8145800502097
 21
-125.6344989810459
 31
0.0
  0
LINE
  5
2C7
330
265
100
AcDbEntity
  8
linea-spessa
100
AcDbLine
 10
-504.2625800502137
 20
-131.9889389371383
 30
0.0
 11
-504.2625800502137
 21
-125.6344989810459
 31
0.0
  0
LINE
  5
2C8
330
265
100
AcDbEntity
  8
linea-spessa
100
AcDbLine
 10
-511.8145800502097
 20
-136.4901720267662
 30
0.0
 11
-511.8145800502097
 21
-142.8446119828441
 31
0.0
  0
LINE
  5
2C9
330
265
100
AcDbEntity
  8
linea-spessa
100
AcDbLine
 10
-504.2625800502137
 20
-136.4901720267662
 30
0.0
 11
-504.2625800502137
 21
-142.8446119828441
 31
0.0
  0
LINE
  5
2CA
330
265
100
AcDbEntity
  8
linea-spessa
100
AcDbLine
 10
-511.8145800502097
 20
-142.8446119828441
 30
0.0
 11
-504.2625800502137
 21
-142.8446119828441
 31
0.0
  0
LINE
  5
2CB
330
265
100
AcDbEntity
  8
linea-spessa
100
AcDbLine
 10
-525.2749245413288
 20
-194.2572751246334
 30
0.0
 11
-525.2749245413288
 21
-205.3336140404863
 31
0.0
  0
LINE
  5
2CC
330
265
100
AcDbEntity
  8
linea-spessa
100
AcDbLine
 10
-525.2749245413288
 20
-205.3336140404863
 30
0.0
 11
-493.1362286511284
 21
-205.3336140404863
 31
0.0
  0
LINE
  5
2CD
330
265
100
AcDbEntity
  8
linea-spessa
100
AcDbLine
 10
-493.1362286511284
 20
-205.3336140404863
 30
0.0
 11
-493.1362286511284
 21
-194.2572751246334
 31
0.0
  0
LINE
  5
2CE
330
265
100
AcDbEntity
  8
linea-spessa
100
AcDbLine
 10
-551.4293256455857
 20
-117.3797634143557
 30
0.0
 11
-551.4293256455857
 21
-99.61944997901447
 31
0.0
  0
LINE
  5
2CF
330
265
100
AcDbEntity
  8
linea-spessa
100
AcDbLine
 10
-543.707082165667
 20
-117.3797634143557
 30
0.0
 11
-543.707082165667
 21
-96.85197145561687
 31
0.0
  0
LINE
  5
2D0
330
265
100
AcDbEntity
  8
linea-spessa
100
AcDbLine
 10
-504.354834562313
 20
-117.3797634143557
 30
0.0
 11
-504.3548345623712
 21
-92.86033312567452
 31
0.0
  0
LWPOLYLINE
  5
2D1
330
265
100
AcDbEntity
  8
linea-spessa
100
AcDbPolyline
 90
        4
 70
     1
 43
0.0
 10
-504.3548345623421
 20
-107.2709622199763
 10
-473.1548220742261
 20
-107.2709622199763
 10
-473.1548220742261
 20
-98.07480958779343
 10
-504.3548345623421
 20
-98.07480958779343
  0
LINE
  5
2D2
330
265
100
AcDbEntity
  8
linea-spessa
100
AcDbLine
 10
-475.6945189511461
 20
-98.07480958777887
 30
0.0
 11
-475.6945189512044
 21
-92.86033312570362
 31
0.0
  0
LINE
  5
2D3
330
265
100
AcDbEntity
  8
linea-spessa
100
AcDbLine
 10
-485.2182129516732
 20
-98.07480958777887
 30
0.0
 11
-485.2182129517022
 21
-92.86033312570362
 31
0.0
  0
LINE
  5
2D4
330
265
100
AcDbEntity
  8
linea-spessa
100
AcDbLine
 10
-475.6945189511461
 20
-107.2709622199618
 30
0.0
 11
-475.6945189512044
 21
-112.485438682037
 31
0.0
  0
LINE
  5
2D5
330
265
100
AcDbEntity
  8
linea-spessa
100
AcDbLine
 10
-485.2182129516732
 20
-107.2709622199618
 30
0.0
 11
-485.2182129517022
 21
-112.485438682037
 31
0.0
  0
LINE
  5
2D6
330
265
100
AcDbEntity
  8
linea-spessa
100
AcDbLine
 10
-487.4039849550172
 20
-112.4854386820661
 30
0.0
 11
-468.6856176751316
 21
-112.485438682037
 31
0.0
  0
LINE
  5
2D7
330
265
100
AcDbEntity
  8
linea-spessa
100
AcDbLine
 10
-468.6856176751316
 20
-112.485438682037
 30
0.0
 11
-468.6856176751316
 21
-119.6382340468262
 31
0.0
  0
LINE
  5
2D8
330
265
100
AcDbEntity
  8
linea-spessa
100
AcDbLine
 10
-468.6856176751316
 20
-119.6382340468262
 30
0.0
 11
-487.4039849550172
 21
-119.6382340468117
 31
0.0
  0
LINE
  5
2D9
330
265
100
AcDbEntity
  8
linea-spessa
100
AcDbLine
 10
-487.4039849550172
 20
-119.6382340468117
 30
0.0
 11
-487.4039849550172
 21
-112.4854386820661
 31
0.0
  0
LINE
  5
2DA
330
265
100
AcDbEntity
  8
linea-spessa
100
AcDbLine
 10
-475.6945189511461
 20
-124.852710508916
 30
0.0
 11
-475.6945189512044
 21
-119.6382340468262
 31
0.0
  0
LINE
  5
2DB
330
265
100
AcDbEntity
  8
linea-spessa
100
AcDbLine
 10
-485.2182129516732
 20
-124.852710508916
 30
0.0
 11
-485.2182129517022
 21
-119.6382340468262
 31
0.0
  0
LINE
  5
2DC
330
265
100
AcDbEntity
  8
linea-spessa
100
AcDbLine
 10
-485.2182129516732
 20
-124.852710508916
 30
0.0
 11
-475.6945189511461
 21
-124.8527105088578
 31
0.0
  0
LWPOLYLINE
  5
2DD
330
265
100
AcDbEntity
  8
linea-spessa
100
AcDbPolyline
 90
        4
 70
     1
 43
0.0
 10
-468.6856176751316
 20
-110.0235279086628
 10
-465.2021211351675
 20
-110.0235279086628
 10
-465.2021211351675
 20
-122.1001448202005
 10
-468.6856176751316
 20
-122.1001448202005
  0
ELLIPSE
  5
2DE
330
265
100
AcDbEntity
  8
linea-spessa
100
AcDbEllipse
 10
-592.9060253601638
 20
-182.7680151545792
 30
0.0
 11
0.0
 21
-5.546882306867278
 31
0.0
210
0.0
220
0.0
230
1.0
 40
0.4943751222187435
 41
0.0
 42
6.283185307179586
  0
ELLIPSE
  5
2DF
330
265
100
AcDbEntity
  8
linea-spessa
100
AcDbEllipse
 10
-579.3321336827648
 20
-182.7680151545792
 30
0.0
 11
0.0
 21
-5.546882306867278
 31
0.0
210
0.0
220
0.0
230
1.0
 40
0.6179722938271598
 41
0.0
 42
6.283185307179586
  0
ELLIPSE
  5
2E0
330
265
100
AcDbEntity
  8
linea-spessa
100
AcDbEllipse
 10
-558.6284314454242
 20
-182.7680151545792
 30
0.0
 11
0.0
 21
-5.546882306867278
 31
0.0
210
0.0
220
0.0
230
1.0
 40
0.7909974827070054
 41
0.0
 42
6.283185307179586
  0
ELLIPSE
  5
2E1
330
265
100
AcDbEntity
  8
linea-spessa
100
AcDbEllipse
 10
-533.9485668363923
 20
-182.7680151545792
 30
0.0
 11
0.0
 21
-5.546882306867278
 31
0.0
210
0.0
220
0.0
230
1.0
 40
0.9640091073669767
 41
0.0
 42
6.283185307179586
  0
ELLIPSE
  5
2E2
330
265
100
AcDbEntity
  8
linea-spessa
100
AcDbEllipse
 10
-499.9451443161233
 20
-182.7680151545792
 30
0.0
 11
0.0
 21
-5.546882306867278
 31
0.0
210
0.0
220
0.0
230
1.0
 40
0.9640091073669767
 41
0.0
 42
6.283185307179586
  0
LINE
  5
2E3
330
265
100
AcDbEntity
  8
linea-spessa
100
AcDbLine
 10
-379.0160802445898
 20
-84.2943029293092
 30
0.0
 11
-416.0192178322758
 21
-84.2943029293092
 31
0.0
  0
LINE
  5
2E4
330
265
100
AcDbEntity
  8
linea-spessa
100
AcDbLine
 10
-379.0160802445898
 20
84.2943029293383
 30
0.0
 11
-416.0192178322758
 21
84.2943029293383
 31
0.0
  0
LINE
  5
2E5
330
265
100
AcDbEntity
  8
linea-spessa
100
AcDbLine
 10
-526.7433960474736
 20
92.86033312568907
 30
0.0
 11
-526.7433960474736
 21
-92.86033312565995
 31
0.0
  0
LINE
  5
2E6
330
265
100
AcDbEntity
  8
linea-spessa
100
AcDbLine
 10
-886.9747717929712
 20
-172.7531885115459
 30
0.0
 11
-886.9747717930295
 21
172.5850479316432
 31
0.0
  0
LINE
  5
2E7
330
265
100
AcDbEntity
  8
linea-spessa
100
AcDbLine
 10
-890.5126577527845
 20
-172.7670338678581
 30
0.0
 11
-890.5126577528134
 21
172.6663975328265
 31
0.0
  0
ARC
  5
2E8
330
265
100
AcDbEntity
  8
linea-spessa
100
AcDbCircle
 10
-11.78791419405024
 20
-3.060326033606543
 30
0.0
 40
1021.407918001553
100
AcDbArc
 50
171.8172587858243
 51
179.8311536523572
  0
ARC
  5
2E9
330
265
100
AcDbEntity
  8
linea-spessa
100
AcDbCircle
 10
-936.1880636383721
 20
118.0386534858844
 30
0.0
 40
89.92627168834896
100
AcDbArc
 50
108.6986066045527
 51
164.4530372727623
  0
ARC
  5
2EA
330
265
100
AcDbEntity
  8
linea-spessa
100
AcDbCircle
 10
-936.1488846075081
 20
-118.0171542076714
 30
0.0
 40
89.96978019190825
100
AcDbArc
 50
195.553465792068
 51
251.2620430460419
  0
ARC
  5
2EB
330
265
100
AcDbEntity
  8
linea-spessa
100
AcDbCircle
 10
-11.78791419405024
 20
3.060326033635647
 30
0.0
 40
1021.407918001553
100
AcDbArc
 50
180.1688463476428
 51
188.1827412141757
  0
ARC
  5
2EC
330
265
100
AcDbEntity
  8
linea-spessa
100
AcDbCircle
 10
-859.9902893998077
 20
171.926650110574
 30
0.0
 40
30.53133138475252
100
AcDbArc
 50
113.8939148313683
 51
178.6116375769579
  0
ARC
  5
2ED
330
265
100
AcDbEntity
  8
linea-spessa
100
AcDbCircle
 10
-859.960174525011
 20
171.9225423895113
 30
0.0
 40
27.02445891854672
100
AcDbArc
 50
97.30462748024706
 51
178.7560217031132
  0
ARC
  5
2EE
330
265
100
AcDbEntity
  8
linea-spessa
100
AcDbCircle
 10
-859.9902893998077
 20
-172.0272864448489
 30
0.0
 40
30.53133138475252
100
AcDbArc
 50
181.388362423042
 51
246.1060851686317
  0
ARC
  5
2EF
330
265
100
AcDbEntity
  8
linea-spessa
100
AcDbCircle
 10
-859.960174525011
 20
-172.0231787237862
 30
0.0
 40
27.02445891854672
100
AcDbArc
 50
181.2439782968868
 51
262.6953725197529
  0
LINE
  5
2F0
330
265
100
AcDbEntity
  8
linea-spessa
100
AcDbLine
 10
-973.4247680398111
 20
29.09358894197794
 30
0.0
 11
-932.6505536248733
 21
29.09358894190518
 31
0.0
  0
LINE
  5
2F1
330
265
100
AcDbEntity
  8
linea-spessa
100
AcDbLine
 10
-973.4247680397821
 20
-29.19422527650022
 30
0.0
 11
-932.6505536248733
 21
-29.19422527658753
 31
0.0
  0
LINE
  5
2F2
330
265
100
AcDbEntity
  8
linea-spessa
100
AcDbLine
 10
-997.0865135760105
 20
38.15598894198775
 30
0.0
 11
-926.7385919356311
 21
38.15598894182767
 31
0.0
  0
LINE
  5
2F3
330
265
100
AcDbEntity
  8
linea-spessa
100
AcDbLine
 10
-997.0865135760687
 20
-38.25662527649547
 30
0.0
 11
-926.7385919356893
 21
-38.25662527655368
 31
0.0
  0
LINE
  5
2F4
330
265
100
AcDbEntity
  8
linea-spessa
100
AcDbLine
 10
-1006.526513576071
 20
28.71598894198541
 30
0.0
 11
-1006.526513576013
 21
-28.81662527649314
 31
0.0
  0
LINE
  5
2F5
330
265
100
AcDbEntity
  8
linea-spessa
100
AcDbLine
 10
-977.2007680398237
 20
25.31758894197992
 30
0.0
 11
-977.2007680397654
 21
-25.41822527648765
 31
0.0
  0
LINE
  5
2F6
330
265
100
AcDbEntity
  8
linea-spessa
100
AcDbLine
 10
-928.8745536248898
 20
25.31758894190716
 30
0.0
 11
-928.8745536248606
 21
-25.41822527658951
 31
0.0
  0
LINE
  5
2F7
330
265
100
AcDbEntity
  8
linea-spessa
100
AcDbLine
 10
-917.2985919356287
 20
28.71598894181079
 30
0.0
 11
-917.298591935687
 21
-28.81662527658046
 31
0.0
  0
LINE
  5
2F8
330
265
100
AcDbEntity
  8
linea-spessa
100
AcDbLine
 10
-973.4247680398111
 20
129.9440245749429
 30
0.0
 11
-932.6505536248733
 21
129.9440245748701
 31
0.0
  0
LINE
  5
2F9
330
265
100
AcDbEntity
  8
linea-spessa
100
AcDbLine
 10
-973.424768039753
 20
71.65621035645017
 30
0.0
 11
-932.6505536248733
 21
71.65621035636286
 31
0.0
  0
LINE
  5
2FA
330
265
100
AcDbEntity
  8
linea-spessa
100
AcDbLine
 10
-997.0865135760105
 20
139.0064245749672
 30
0.0
 11
-926.7385919356019
 21
139.0064245748217
 31
0.0
  0
LINE
  5
2FB
330
265
100
AcDbEntity
  8
linea-spessa
100
AcDbLine
 10
-997.0865135760105
 20
62.59381035648402
 30
0.0
 11
-926.7385919357476
 21
62.59381035636761
 31
0.0
  0
LINE
  5
2FC
330
265
100
AcDbEntity
  8
linea-spessa
100
AcDbLine
 10
-1006.526513576013
 20
129.5664245749649
 30
0.0
 11
-1006.526513576013
 21
72.03381035648636
 31
0.0
  0
LINE
  5
2FD
330
265
100
AcDbEntity
  8
linea-spessa
100
AcDbLine
 10
-977.2007680398237
 20
126.1680245749594
 30
0.0
 11
-977.2007680397654
 21
75.43221035646275
 31
0.0
  0
LINE
  5
2FE
330
265
100
AcDbEntity
  8
linea-spessa
100
AcDbLine
 10
-928.8745536248606
 20
126.1680245748721
 30
0.0
 11
-928.8745536248898
 21
75.43221035634633
 31
0.0
  0
LINE
  5
2FF
330
265
100
AcDbEntity
  8
linea-spessa
100
AcDbLine
 10
-917.2985919356287
 20
129.5664245748048
 30
0.0
 11
-917.298591935687
 21
72.03381035634084
 31
0.0
  0
LINE
  5
300
330
265
100
AcDbEntity
  8
linea-spessa
100
AcDbLine
 10
-973.4247680397821
 20
-130.0446609100036
 30
0.0
 11
-932.6505536248733
 21
-130.0446609099308
 31
0.0
  0
LINE
  5
301
330
265
100
AcDbEntity
  8
linea-spessa
100
AcDbLine
 10
-973.424768039753
 20
-71.75684669153998
 30
0.0
 11
-932.6505536248733
 21
-71.75684669145266
 31
0.0
  0
LINE
  5
302
330
265
100
AcDbEntity
  8
linea-spessa
100
AcDbLine
 10
-997.0865135760105
 20
-139.1070609100279
 30
0.0
 11
-926.7385919356019
 21
-139.1070609099115
 31
0.0
  0
LINE
  5
303
330
265
100
AcDbEntity
  8
linea-spessa
100
AcDbLine
 10
-997.0865135760687
 20
-62.69444669157383
 30
0.0
 11
-926.7385919356893
 21
-62.69444669145741
 31
0.0
  0
LINE
  5
304
330
265
100
AcDbEntity
  8
linea-spessa
100
AcDbLine
 10
-1006.526513576071
 20
-129.6670609100256
 30
0.0
 11
-1006.526513576013
 21
-72.13444669157616
 31
0.0
  0
LINE
  5
305
330
265
100
AcDbEntity
  8
linea-spessa
100
AcDbLine
 10
-977.2007680397654
 20
-126.268660909991
 30
0.0
 11
-977.2007680397654
 21
-75.532846691538
 31
0.0
  0
LINE
  5
306
330
265
100
AcDbEntity
  8
linea-spessa
100
AcDbLine
 10
-928.8745536248606
 20
-126.2686609099328
 30
0.0
 11
-928.8745536248898
 21
-75.53284669143613
 31
0.0
  0
LINE
  5
307
330
265
100
AcDbEntity
  8
linea-spessa
100
AcDbLine
 10
-917.2985919356287
 20
-129.6670609098946
 30
0.0
 11
-917.298591935687
 21
-72.13444669143064
 31
0.0
  0
ARC
  5
308
330
265
100
AcDbEntity
  8
linea-spessa
100
AcDbCircle
 10
-997.0865135760105
 20
129.5664245749649
 30
0.0
 40
9.440000000000001
100
AcDbArc
 50
90.0
 51
180.0
  0
ARC
  5
309
330
265
100
AcDbEntity
  8
linea-spessa
100
AcDbCircle
 10
-997.0865135760105
 20
72.03381035648636
 30
0.0
 40
9.440000000000001
100
AcDbArc
 50
180.0
 51
270.0
  0
ARC
  5
30A
330
265
100
AcDbEntity
  8
linea-spessa
100
AcDbCircle
 10
-926.7385919356893
 20
72.03381035636994
 30
0.0
 40
9.440000000000001
100
AcDbArc
 50
270.0
 51
0.0
  0
ARC
  5
30B
330
265
100
AcDbEntity
  8
linea-spessa
100
AcDbCircle
 10
-926.7385919356311
 20
129.5664245748194
 30
0.0
 40
9.440000000000001
100
AcDbArc
 50
0.0
 51
90.0
  0
ARC
  5
30C
330
265
100
AcDbEntity
  8
linea-spessa
100
AcDbCircle
 10
-997.0865135760687
 20
28.71598894198541
 30
0.0
 40
9.440000000000001
100
AcDbArc
 50
90.0
 51
180.0
  0
ARC
  5
30D
330
265
100
AcDbEntity
  8
linea-spessa
100
AcDbCircle
 10
-997.0865135760105
 20
-28.81662527649314
 30
0.0
 40
9.440000000000001
100
AcDbArc
 50
180.0
 51
270.0
  0
ARC
  5
30E
330
265
100
AcDbEntity
  8
linea-spessa
100
AcDbCircle
 10
-926.7385919356893
 20
-28.81662527655135
 30
0.0
 40
9.440000000000001
100
AcDbArc
 50
270.0
 51
0.0
  0
ARC
  5
30F
330
265
100
AcDbEntity
  8
linea-spessa
100
AcDbCircle
 10
-926.7385919356311
 20
28.71598894182535
 30
0.0
 40
9.440000000000001
100
AcDbArc
 50
0.0
 51
90.0
  0
ARC
  5
310
330
265
100
AcDbEntity
  8
linea-spessa
100
AcDbCircle
 10
-997.0865135760105
 20
-72.13444669157616
 30
0.0
 40
9.440000000000001
100
AcDbArc
 50
90.0
 51
180.0
  0
ARC
  5
311
330
265
100
AcDbEntity
  8
linea-spessa
100
AcDbCircle
 10
-997.0865135760687
 20
-129.6670609100256
 30
0.0
 40
9.440000000000001
100
AcDbArc
 50
180.0
 51
270.0
  0
ARC
  5
312
330
265
100
AcDbEntity
  8
linea-spessa
100
AcDbCircle
 10
-926.7385919356311
 20
-129.6670609099092
 30
0.0
 40
9.440000000000001
100
AcDbArc
 50
270.0
 51
0.0
  0
ARC
  5
313
330
265
100
AcDbEntity
  8
linea-spessa
100
AcDbCircle
 10
-926.7385919356893
 20
-72.13444669145975
 30
0.0
 40
9.440000000000001
100
AcDbArc
 50
0.0
 51
90.0
  0
ARC
  5
314
330
265
100
AcDbEntity
  8
linea-spessa
100
AcDbCircle
 10
-973.4247680398111
 20
126.1680245749594
 30
0.0
 40
3.776
100
AcDbArc
 50
90.0
 51
180.0
  0
ARC
  5
315
330
265
100
AcDbEntity
  8
linea-spessa
100
AcDbCircle
 10
-973.424768039753
 20
75.43221035646275
 30
0.0
 40
3.776
100
AcDbArc
 50
180.0
 51
270.0
  0
ARC
  5
316
330
265
100
AcDbEntity
  8
linea-spessa
100
AcDbCircle
 10
-932.6505536248733
 20
75.43221035634633
 30
0.0
 40
3.776
100
AcDbArc
 50
270.0
 51
0.0
  0
ARC
  5
317
330
265
100
AcDbEntity
  8
linea-spessa
100
AcDbCircle
 10
-932.6505536248733
 20
126.1680245748721
 30
0.0
 40
3.776
100
AcDbArc
 50
0.0
 51
90.0
  0
ARC
  5
318
330
265
100
AcDbEntity
  8
linea-spessa
100
AcDbCircle
 10
-973.4247680398111
 20
25.31758894197992
 30
0.0
 40
3.776
100
AcDbArc
 50
90.0
 51
180.0
  0
ARC
  5
319
330
265
100
AcDbEntity
  8
linea-spessa
100
AcDbCircle
 10
-932.6505536248733
 20
25.31758894190716
 30
0.0
 40
3.776
100
AcDbArc
 50
0.0
 51
90.0
  0
ARC
  5
31A
330
265
100
AcDbEntity
  8
linea-spessa
100
AcDbCircle
 10
-932.6505536248733
 20
-25.41822527658951
 30
0.0
 40
3.776
100
AcDbArc
 50
270.0
 51
0.0
  0
ARC
  5
31B
330
265
100
AcDbEntity
  8
linea-spessa
100
AcDbCircle
 10
-973.4247680397821
 20
-25.41822527648765
 30
0.0
 40
3.776
100
AcDbArc
 50
180.0
 51
270.0
  0
ARC
  5
31C
330
265
100
AcDbEntity
  8
linea-spessa
100
AcDbCircle
 10
-973.424768039753
 20
-75.532846691538
 30
0.0
 40
3.776
100
AcDbArc
 50
90.0
 51
180.0
  0
ARC
  5
31D
330
265
100
AcDbEntity
  8
linea-spessa
100
AcDbCircle
 10
-932.6505536248733
 20
-75.53284669143613
 30
0.0
 40
3.776
100
AcDbArc
 50
0.0
 51
90.0
  0
ARC
  5
31E
330
265
100
AcDbEntity
  8
linea-spessa
100
AcDbCircle
 10
-932.6505536248733
 20
-126.2686609099328
 30
0.0
 40
3.776
100
AcDbArc
 50
270.0
 51
0.0
  0
ARC
  5
31F
330
265
100
AcDbEntity
  8
linea-spessa
100
AcDbCircle
 10
-973.4247680397821
 20
-126.268660909991
 30
0.0
 40
3.776
100
AcDbArc
 50
180.0
 51
270.0
  0
ARC
  5
320
330
265
100
AcDbEntity
  8
linea-spessa
100
AcDbCircle
 10
161.2852337720978
 20
34.94293507249677
 30
0.0
 40
1206.791230465311
100
AcDbArc
 50
181.659245210131
 51
188.516226700467
  0
LINE
  5
321
330
265
100
AcDbEntity
  8
linea-fine
100
AcDbLine
 10
-1194.418130907608
 20
-203.3643760770792
 30
0.0
 11
-1236.473076121008
 21
-203.2168453043123
 31
0.0
  0
ARC
  5
322
330
265
100
AcDbEntity
  8
linea-fine
100
AcDbCircle
 10
-1233.065383587032
 20
-132.2386907908367
 30
0.0
 40
71.05990984046333
100
AcDbArc
 50
189.2569439491004
 51
267.2513149432536
  0
ARC
  5
323
330
265
100
AcDbEntity
  8
linea-fine
100
AcDbCircle
 10
-1206.697767780075
 20
-346.4045181969414
 30
0.0
 40
549.906016145503
100
AcDbArc
 50
72.90811071384154
 51
88.72045434823586
  0
LINE
  5
324
330
265
100
AcDbEntity
  8
linea-fine
100
AcDbLine
 10
-1194.418130907608
 20
203.3643760771083
 30
0.0
 11
-1236.473076121008
 21
203.2168453043269
 31
0.0
  0
ARC
  5
325
330
265
100
AcDbEntity
  8
linea-fine
100
AcDbCircle
 10
-1233.065383587032
 20
132.2386907908658
 30
0.0
 40
71.05990984046333
100
AcDbArc
 50
92.74868505674641
 51
170.7430560508995
  0
ARC
  5
326
330
265
100
AcDbEntity
  8
linea-fine
100
AcDbCircle
 10
-108.9029517893504
 20
-35.1404111510783
 30
0.0
 40
1207.60843500475
100
AcDbArc
 50
171.4849333089167
 51
178.3325046070323
  0
LINE
  5
327
330
265
100
AcDbEntity
  8
linea-fine
100
AcDbLine
 10
-1045.07762828024
 20
261.0480913609208
 30
0.0
 11
-1069.507134298765
 21
261.0480913609062
 31
0.0
  0
LINE
  5
328
330
265
100
AcDbEntity
  8
linea-fine
100
AcDbLine
 10
-1069.507134298765
 20
261.0480913609062
 30
0.0
 11
-1071.677874912507
 21
261.0480913609062
 31
0.0
  0
LINE
  5
329
330
265
100
AcDbEntity
  8
linea-fine
100
AcDbLine
 10
-1071.677874912507
 20
261.0480913609062
 30
0.0
 11
-1071.677874912507
 21
186.6679488495574
 31
0.0
  0
LINE
  5
32A
330
265
100
AcDbEntity
  8
linea-fine
100
AcDbLine
 10
-1057.512582116324
 20
181.3281380932312
 30
0.0
 11
-1057.512582116353
 21
261.0480913609062
 31
0.0
  0
LINE
  5
32B
330
265
100
AcDbEntity
  8
linea-fine
100
AcDbLine
 10
-1063.593781290139
 20
184.5548735118063
 30
0.0
 11
-1063.593781290197
 21
261.0480913609062
 31
0.0
  0
LINE
  5
32C
330
265
100
AcDbEntity
  8
linea-fine
100
AcDbLine
 10
-1068.047715386637
 20
185.7353032450628
 30
0.0
 11
-1068.047715386696
 21
261.0480913609062
 31
0.0
  0
LINE
  5
32D
330
265
100
AcDbEntity
  8
linea-fine
100
AcDbLine
 10
-1049.953857171087
 20
180.6893757916259
 30
0.0
 11
-1049.953857171145
 21
261.0480913609062
 31
0.0
  0
LINE
  5
32E
330
265
100
AcDbEntity
  8
linea-fine
100
AcDbLine
 10
-1045.07762828024
 20
265.9367952837201
 30
0.0
 11
-1076.707103837543
 21
265.9367952837056
 31
0.0
  0
LINE
  5
32F
330
265
100
AcDbEntity
  8
linea-fine
100
AcDbLine
 10
-1076.707103837543
 20
265.9367952837056
 30
0.0
 11
-1076.707103837543
 21
287.6454178218119
 31
0.0
  0
ARC
  5
330
330
265
100
AcDbEntity
  8
linea-fine
100
AcDbCircle
 10
-1004.252243620722
 20
287.5757165924006
 30
0.0
 40
72.4548937429526
100
AcDbArc
 50
135.8978023816169
 51
179.944881750611
  0
LINE
  5
331
330
265
100
AcDbEntity
  8
linea-fine
100
AcDbLine
 10
-1056.282074200251
 20
338.0
 30
0.0
 11
-1045.07762828024
 21
338.0
 31
0.0
  0
LINE
  5
332
330
265
100
AcDbEntity
  8
linea-fine
100
AcDbLine
 10
-1056.055126194697
 20
326.7379666936904
 30
0.0
 11
-1045.07762828024
 21
326.7379666936904
 31
0.0
  0
ARC
  5
333
330
265
100
AcDbEntity
  8
linea-fine
100
AcDbCircle
 10
-999.9410484419495
 20
320.3699846001837
 30
0.0
 40
56.47425004359735
100
AcDbArc
 50
173.5256134094128
 51
201.1919351888822
  0
LINE
  5
334
330
265
100
AcDbEntity
  8
linea-fine
100
AcDbLine
 10
-1066.06859467164
 20
265.9367952837492
 30
0.0
 11
-1066.068594671582
 21
261.0480913609645
 31
0.0
  0
ARC
  5
335
330
265
100
AcDbEntity
  8
linea-fine
100
AcDbCircle
 10
-109.7147662279021
 20
34.94293507249677
 30
0.0
 40
1206.791230465311
100
AcDbArc
 50
181.659245210131
 51
188.516226700467
  0
LINE
  5
336
330
265
100
AcDbEntity
  8
linea-spessa
100
AcDbLine
 10
-43.46995122139924
 20
94.50000000000001
 30
0.0
 11
-43.46995122139924
 21
-94.50000000000001
 31
0.0
  0
LINE
  5
337
330
265
100
AcDbEntity
  8
linea-spessa
100
AcDbLine
 10
-30.64152409665985
 20
81.67157287526061
 30
0.0
 11
-30.64152409665985
 21
-81.67157287526061
 31
0.0
  0
LINE
  5
338
330
265
100
AcDbEntity
  8
linea-spessa
100
AcDbLine
 10
-364.9999999999709
 20
-94.50000000000001
 30
0.0
 11
-43.46995122139924
 21
-94.50000000000001
 31
0.0
  0
LINE
  5
339
330
265
100
AcDbEntity
  8
linea-spessa
100
AcDbLine
 10
-30.64152409665985
 20
-81.67157287526061
 30
0.0
 11
-43.46995122139924
 21
-94.50000000000001
 31
0.0
  0
LINE
  5
33A
330
265
100
AcDbEntity
  8
linea-spessa
100
AcDbLine
 10
-364.9999999999709
 20
94.50000000000001
 30
0.0
 11
-43.46995122139924
 21
94.50000000000001
 31
0.0
  0
LINE
  5
33B
330
265
100
AcDbEntity
  8
linea-spessa
100
AcDbLine
 10
-43.46995122139924
 20
94.50000000000001
 30
0.0
 11
-30.64152409665985
 21
81.67157287526061
 31
0.0
  0
LINE
  5
33C
330
265
100
AcDbEntity
  8
linea-spessa
100
AcDbLine
 10
-30.64152409665985
 20
77.57116053660865
 30
0.0
 11
-11.39888340953621
 21
58.32851984949957
 31
0.0
  0
LINE
  5
33D
330
265
100
AcDbEntity
  8
linea-spessa
100
AcDbLine
 10
-30.64152409665985
 20
-77.57116053659411
 30
0.0
 11
-11.39888340953621
 21
-58.32851984948502
 31
0.0
  0
LINE
  5
33E
330
265
100
AcDbEntity
  8
linea-spessa
100
AcDbLine
 10
-11.39888340953621
 20
58.32851984949957
 30
0.0
 11
0.0000000000291038
 21
58.32851984949957
 31
0.0
  0
LINE
  5
33F
330
265
100
AcDbEntity
  8
linea-spessa
100
AcDbLine
 10
0.0000000000291038
 20
58.32851984949957
 30
0.0
 11
0.0
 21
-58.32851984949957
 31
0.0
  0
LINE
  5
340
330
265
100
AcDbEntity
  8
linea-spessa
100
AcDbLine
 10
0.0
 20
-58.32851984949957
 30
0.0
 11
-11.39888340953621
 21
-58.32851984948502
 31
0.0
  0
LINE
  5
341
330
265
100
AcDbEntity
  8
linea-spessa
100
AcDbLine
 10
-435.5315231530112
 20
92.86033312570362
 30
0.0
 11
-416.0192178322758
 21
92.86033312571817
 31
0.0
  0
LINE
  5
342
330
265
100
AcDbEntity
  8
linea-spessa
100
AcDbLine
 10
-435.5315231530112
 20
-92.86033312570362
 30
0.0
 11
-416.0192178322758
 21
-92.86033312568907
 31
0.0
  0
LWPOLYLINE
  5
343
330
265
100
AcDbEntity
  8
linea-spessa
100
AcDbPolyline
 90
        4
 70
     1
 43
0.0
 10
-643.2174307706591
 20
-284.9337782964576
 10
-613.2554760530766
 20
-284.9337782964576
 10
-613.2554760530766
 20
-342.0
 10
-643.2174307706591
 20
-342.0
  0
LWPOLYLINE
  5
344
330
265
100
AcDbEntity
  8
linea-spessa
100
AcDbPolyline
 90
        4
 70
     1
 43
0.0
 10
-648.3503971332684
 20
-307.6086157765094
 10
-711.8930407427833
 20
-307.6086157765094
 10
-711.8930407427833
 20
-328.6090084502066
 10
-648.3503971332684
 20
-328.6090084502066
  0
LINE
  5
345
330
265
100
AcDbEntity
  8
linea-spessa
100
AcDbLine
 10
-783.3334075867606
 20
-214.0440510698681
 30
0.0
 11
-674.7600306028616
 21
-214.0440510698681
 31
0.0
  0
LWPOLYLINE
  5
346
330
265
100
AcDbEntity
  8
linea-spessa
100
AcDbPolyline
 90
        4
 70
     1
 43
0.0
 10
-758.5791684966825
 20
-214.0440510698681
 10
-724.5945103867561
 20
-214.0440510698681
 10
-724.5945103867561
 20
-267.5215105358802
 10
-758.5791684966825
 20
-267.5215105358802
  0
LWPOLYLINE
  5
347
330
265
100
AcDbEntity
  8
linea-spessa
100
AcDbPolyline
 90
        4
 70
     1
 43
0.0
 10
-716.0050544041442
 20
-214.0440510698681
 10
-682.0203962942177
 20
-214.0440510698681
 10
-682.0203962942177
 20
-267.5215105358802
 10
-716.0050544041442
 20
-267.5215105358802
  0
LWPOLYLINE
  5
348
330
265
100
AcDbEntity
  8
linea-spessa
100
AcDbPolyline
 90
        4
 70
     1
 43
0.0
 10
-673.4309403116058
 20
-214.0440510698681
 10
-639.4462822016794
 20
-214.0440510698681
 10
-639.4462822016794
 20
-267.5215105358802
 10
-673.4309403116058
 20
-267.5215105358802
  0
LINE
  5
349
330
265
100
AcDbEntity
  8
linea-spessa
100
AcDbLine
 10
-686.5309928629431
 20
-307.6086157765094
 30
0.0
 11
-686.5309928629431
 21
-267.5215105358802
 31
0.0
  0
LINE
  5
34A
330
265
100
AcDbEntity
  8
linea-spessa
100
AcDbLine
 10
-673.7124450131086
 20
-307.6086157765094
 30
0.0
 11
-673.7124450131086
 21
-267.5215105358802
 31
0.0
  0
CIRCLE
  5
34B
330
265
100
AcDbEntity
  8
linea-spessa
100
AcDbCircle
 10
-741.5868394417048
 20
-240.7827808028669
 30
0.0
 40
7.753750932359253
  0
CIRCLE
  5
34C
330
265
100
AcDbEntity
  8
linea-spessa
100
AcDbCircle
 10
-699.0127253491955
 20
-240.7827808028669
 30
0.0
 40
7.753750932359253
  0
CIRCLE
  5
34D
330
265
100
AcDbEntity
  8
linea-spessa
100
AcDbCircle
 10
-656.438611256628
 20
-240.7827808028669
 30
0.0
 40
7.753750932359253
  0
LWPOLYLINE
  5
34E
330
265
100
AcDbEntity
  8
linea-spessa
100
AcDbPolyline
 90
        4
 70
     1
 43
0.0
 10
-616.7890786126663
 20
-270.6120399045612
 10
-606.3007037425996
 20
-270.6120399045612
 10
-606.3007037425996
 20
-236.2161292390956
 10
-616.7890786126663
 20
-236.2161292390956
  0
LWPOLYLINE
  5
34F
330
265
100
AcDbEntity
  8
linea-spessa
100
AcDbPolyline
 90
        4
 70
     1
 43
0.0
 10
-606.3007037425996
 20
-268.7528178925859
 10
-585.8378117909305
 20
-268.7528178925859
 10
-585.8378117909305
 20
-238.0753512510564
 10
-606.3007037425996
 20
-238.0753512510564
  0
LWPOLYLINE
  5
350
330
265
100
AcDbEntity
  8
linea-spessa
100
AcDbPolyline
 90
        4
 70
     0
 43
0.0
 10
-537.2830424155108
 20
-244.7751938961883
 10
-556.4493730868853
 20
-244.7751938961883
 10
-556.4493730868853
 20
-262.052975247454
 10
-537.2830424155108
 20
-262.052975247454
  0
LINE
  5
351
330
265
100
AcDbEntity
  8
linea-spessa
100
AcDbLine
 10
-556.4493730868853
 20
-247.9819907684141
 30
0.0
 11
-585.8378117909305
 21
-247.9819907684141
 31
0.0
  0
LINE
  5
352
330
265
100
AcDbEntity
  8
linea-spessa
100
AcDbLine
 10
-556.4493730868853
 20
-258.8461783752282
 30
0.0
 11
-585.8378117909305
 21
-258.8461783752282
 31
0.0
  0
LINE
  5
353
330
265
100
AcDbEntity
  8
linea-spessa
100
AcDbLine
 10
-575.0019941811333
 20
-245.7952919221716
 30
0.0
 11
-575.0019941811333
 21
-261.0328772214707
 31
0.0
  0
LINE
  5
354
330
265
100
AcDbEntity
  8
linea-spessa
100
AcDbLine
 10
-606.3007037425996
 20
-244.3932589671895
 30
0.0
 11
-616.7890786126372
 21
-244.3932589671895
 31
0.0
  0
LINE
  5
355
330
265
100
AcDbEntity
  8
linea-spessa
100
AcDbLine
 10
-606.3007037425996
 20
-262.4349101764528
 30
0.0
 11
-616.7890786126372
 21
-262.4349101764528
 31
0.0
  0
LWPOLYLINE
  5
356
330
265
100
AcDbEntity
  8
linea-spessa
100
AcDbPolyline
 90
        2
 70
     0
 43
0.0
 10
-682.0203962942177
 20
-264.7537769952032
 10
-673.4309403116058
 20
-264.7537769952032
  0
LWPOLYLINE
  5
357
330
265
100
AcDbEntity
  8
linea-spessa
100
AcDbPolyline
 90
        4
 70
     0
 43
0.0
 10
-639.4462822016794
 20
-264.7537769952032
 10
-616.7890786126663
 20
-264.7537769952032
 10
-616.7890786126663
 20
-216.5120091491845
 10
-639.4462822016794
 20
-216.5120091491845
  0
LINE
  5
358
330
265
100
AcDbEntity
  8
linea-spessa
100
AcDbLine
 10
-724.5945103867561
 20
-264.7537769952032
 30
0.0
 11
-716.0050544041442
 21
-264.7537769952032
 31
0.0
  0
LWPOLYLINE
  5
359
330
265
100
AcDbEntity
  8
linea-spessa
100
AcDbPolyline
 90
        4
 70
     0
 43
0.0
 10
-758.5791684966825
 20
-216.5120091491845
 10
-762.6434080514882
 20
-216.5120091491845
 10
-762.6434080514882
 20
-264.7537769952032
 10
-758.5791684966825
 20
-264.7537769952032
  0
LWPOLYLINE
  5
35A
330
265
100
AcDbEntity
  8
linea-spessa
100
AcDbPolyline
 90
        2
 70
     0
 43
0.0
 10
-716.0050544041442
 20
-216.5120091491845
 10
-724.5945103867561
 20
-216.5120091491845
  0
LWPOLYLINE
  5
35B
330
265
100
AcDbEntity
  8
linea-spessa
100
AcDbPolyline
 90
        2
 70
     0
 43
0.0
 10
-673.4309403116058
 20
-216.5120091491845
 10
-682.0203962942177
 20
-216.5120091491845
  0
LINE
  5
35C
330
265
100
AcDbEntity
  8
linea-spessa
100
AcDbLine
 10
-625.8946797139651
 20
-284.9337782964576
 30
0.0
 11
-625.8946797139651
 21
-264.7537769952032
 31
0.0
  0
LINE
  5
35D
330
265
100
AcDbEntity
  8
linea-spessa
100
AcDbLine
 10
-630.6056264756771
 20
-284.9337782964576
 30
0.0
 11
-630.6056264756771
 21
-264.7537769952032
 31
0.0
  0
LINE
  5
35E
330
265
100
AcDbEntity
  8
linea-spessa
100
AcDbLine
 10
-537.2830424154817
 20
-254.6180292416248
 30
0.0
 11
-471.8836152521544
 21
-254.6180292416248
 31
0.0
  0
LINE
  5
35F
330
265
100
AcDbEntity
  8
linea-spessa
100
AcDbLine
 10
-537.2830424154817
 20
-252.2101399020176
 30
0.0
 11
-471.8836152521544
 21
-252.2101399020176
 31
0.0
  0
LINE
  5
360
330
265
100
AcDbEntity
  8
linea-spessa
100
AcDbLine
 10
-537.2830424155108
 20
-262.052975247454
 30
0.0
 11
-537.2830424155108
 21
-244.7751938961883
 31
0.0
  0
LINE
  5
361
330
265
100
AcDbEntity
  8
linea-spessa
100
AcDbLine
 10
-529.0129001758469
 20
-272.3003217602673
 30
0.0
 11
-529.0129001758469
 21
-254.6180292416102
 31
0.0
  0
LINE
  5
362
330
265
100
AcDbEntity
  8
linea-spessa
100
AcDbLine
 10
-489.3982530166104
 20
-272.3003217602673
 30
0.0
 11
-489.3982530166104
 21
-254.6180292416102
 31
0.0
  0
LINE
  5
363
330
265
100
AcDbEntity
  8
linea-spessa
100
AcDbLine
 10
-489.3982530166104
 20
-236.1845710564085
 30
0.0
 11
-529.0129001758469
 21
-236.1845710564085
 31
0.0
  0
LINE
  5
364
330
265
100
AcDbEntity
  8
linea-spessa
100
AcDbLine
 10
-489.3982530166104
 20
-272.3003217602673
 30
0.0
 11
-529.0129001758469
 21
-272.3003217602673
 31
0.0
  0
LINE
  5
365
330
265
100
AcDbEntity
  8
linea-spessa
100
AcDbLine
 10
-529.0129001758469
 20
-252.2101399020176
 30
0.0
 11
-529.0129001758469
 21
-236.1845710564085
 31
0.0
  0
LINE
  5
366
330
265
100
AcDbEntity
  8
linea-spessa
100
AcDbLine
 10
-489.3982530166104
 20
-252.2101399020176
 30
0.0
 11
-489.3982530166104
 21
-236.1845710564085
 31
0.0
  0
LINE
  5
367
330
265
100
AcDbEntity
  8
linea-spessa
100
AcDbLine
 10
-471.8836152521544
 20
-254.6180292416248
 30
0.0
 11
-471.8836152521544
 21
-252.2101399020176
 31
0.0
  0
LINE
  5
368
330
265
100
AcDbEntity
  8
linea-spessa
100
AcDbLine
 10
-772.715737692808
 20
-214.0440510698536
 30
0.0
 11
-772.7157376928371
 21
-293.9388652689668
 31
0.0
  0
LINE
  5
369
330
265
100
AcDbEntity
  8
linea-spessa
100
AcDbLine
 10
-772.7157376928371
 20
-293.9388652689668
 30
0.0
 11
-746.5868394417047
 21
-293.9388652689522
 31
0.0
  0
LINE
  5
36A
330
265
100
AcDbEntity
  8
linea-spessa
100
AcDbLine
 10
-517.2698530879861
 20
-205.3336140404863
 30
0.0
 11
-517.2698530879861
 21
-236.1845710564085
 31
0.0
  0
LINE
  5
36B
330
265
100
AcDbEntity
  8
linea-spessa
100
AcDbLine
 10
-501.141300104442
 20
-205.3336140404863
 30
0.0
 11
-501.141300104442
 21
-236.1845710564085
 31
0.0
  0
LINE
  5
36C
330
265
100
AcDbEntity
  8
linea-spessa
100
AcDbLine
 10
-486.2025665064284
 20
-174.4459026082622
 30
0.0
 11
-605.9438382270164
 21
-174.4459026082622
 31
0.0
  0
LINE
  5
36D
330
265
100
AcDbEntity
  8
linea-fine
100
AcDbLine
 10
-1054.333407586266
 20
-214.0440510698681
 30
0.0
 11
-1054.333407586266
 21
-209.2452158166561
 31
0.0
  0
LINE
  5
36E
330
265
100
AcDbEntity
  8
linea-fine
100
AcDbLine
 10
-1054.333407586266
 20
-209.2452158166561
 30
0.0
 11
-1045.07762828024
 21
-209.2452158166561
 31
0.0
  0
LINE
  5
36F
330
265
100
AcDbEntity
  8
linea-fine
100
AcDbLine
 10
-1111.080039475986
 20
-204.7082725699874
 30
0.0
 11
-1048.01249292682
 21
-204.7082725699729
 31
0.0
  0
ARC
  5
370
330
265
100
AcDbEntity
  8
linea-fine
100
AcDbCircle
 10
-1109.336856564681
 20
-197.4482717388891
 30
0.0
 40
7.466344402034782
100
AcDbArc
 50
169.465557587866
 51
256.4984261420857
  0
ARC
  5
371
330
265
100
AcDbEntity
  8
linea-fine
100
AcDbCircle
 10
-996.8862617646227
 20
-334.9003994886589
 30
0.0
 40
139.8709456050916
100
AcDbArc
 50
110.1538189541607
 51
111.4398533177253
  0
LINE
  5
372
330
265
100
AcDbEntity
  8
linea-fine
100
AcDbLine
 10
-1048.01249292682
 20
-204.7082725699729
 30
0.0
 11
-1048.01249292682
 21
-209.2452158166707
 31
0.0
  0
LINE
  5
373
330
265
100
AcDbEntity
  8
linea-fine
100
AcDbLine
 10
-1054.333407586266
 20
-214.0440510698681
 30
0.0
 11
-1045.07762828024
 21
-214.0440510698681
 31
0.0
  0
ARC
  5
374
330
265
100
AcDbEntity
  8
linea-fine
100
AcDbCircle
 10
-1206.697767780075
 20
346.4045181969705
 30
0.0
 40
549.906016145503
100
AcDbArc
 50
271.2795456517641
 51
287.0918892861585
  0
LINE
  5
375
330
265
100
AcDbEntity
  8
linea-spessa
100
AcDbLine
 10
-665.4386112565989
 20
-367.0
 30
0.0
 11
-823.4586342607508
 21
-367.0
 31
0.0
  0
LINE
  5
376
330
265
100
AcDbEntity
  8
linea-spessa
100
AcDbLine
 10
-746.5868394417047
 20
-267.5215105358802
 30
0.0
 11
-746.5868394417047
 21
-308.8747825284226
 31
0.0
  0
LINE
  5
377
330
265
100
AcDbEntity
  8
linea-spessa
100
AcDbLine
 10
-736.5868394417048
 20
-267.5215105358802
 30
0.0
 11
-736.5868394417339
 21
-308.8747825285391
 31
0.0
  0
LINE
  5
378
330
265
100
AcDbEntity
  8
linea-spessa
100
AcDbLine
 10
-704.0127253491955
 20
-267.5215105358802
 30
0.0
 11
-704.0127253491955
 21
-307.6086157765094
 31
0.0
  0
LINE
  5
379
330
265
100
AcDbEntity
  8
linea-spessa
100
AcDbLine
 10
-694.0127253491955
 20
-267.5215105358802
 30
0.0
 11
-694.0127253491955
 21
-307.6086157765094
 31
0.0
  0
LINE
  5
37A
330
265
100
AcDbEntity
  8
linea-spessa
100
AcDbLine
 10
-661.438611256628
 20
-267.5215105358802
 30
0.0
 11
-661.438611256628
 21
-307.6086157765094
 31
0.0
  0
LINE
  5
37B
330
265
100
AcDbEntity
  8
linea-spessa
100
AcDbLine
 10
-651.438611256628
 20
-267.5215105358802
 30
0.0
 11
-651.438611256628
 21
-307.6086157765094
 31
0.0
  0
LINE
  5
37C
330
265
100
AcDbEntity
  8
linea-spessa
100
AcDbLine
 10
-665.438611256628
 20
-357.0
 30
0.0
 11
-823.4586342608091
 21
-357.0
 31
0.0
  0
ARC
  5
37D
330
265
100
AcDbEntity
  8
linea-spessa
100
AcDbCircle
 10
-665.4386112565989
 20
-352.9999999999855
 30
0.0
 40
4.0
100
AcDbArc
 50
270.0
 51
0.0
  0
ARC
  5
37E
330
265
100
AcDbEntity
  8
linea-spessa
100
AcDbCircle
 10
-665.4386112565989
 20
-352.9999999999855
 30
0.0
 40
14.0
100
AcDbArc
 50
270.0
 51
0.0
  0
LINE
  5
37F
330
265
100
AcDbEntity
  8
linea-spessa
100
AcDbLine
 10
-651.4386112565989
 20
-328.6090084502066
 30
0.0
 11
-651.4386112565989
 21
-353.0000000000437
 31
0.0
  0
LINE
  5
380
330
265
100
AcDbEntity
  8
linea-spessa
100
AcDbLine
 10
-661.438611256628
 20
-328.6090084502066
 30
0.0
 11
-661.438611256628
 21
-353.0
 31
0.0
  0
LINE
  5
381
330
265
100
AcDbEntity
  8
linea-spessa
100
AcDbLine
 10
-708.0127253491955
 20
-350.8681852726149
 30
0.0
 11
-809.4710750378435
 21
-350.8681852726149
 31
0.0
  0
LINE
  5
382
330
265
100
AcDbEntity
  8
linea-spessa
100
AcDbLine
 10
-708.0127253491955
 20
-340.8681852726149
 30
0.0
 11
-809.4710750379018
 21
-340.8681852726149
 31
0.0
  0
LINE
  5
383
330
265
100
AcDbEntity
  8
linea-spessa
100
AcDbLine
 10
-750.5868394416466
 20
-322.874782528379
 30
0.0
 11
-793.4488563506456
 21
-322.874782528379
 31
0.0
  0
LINE
  5
384
330
265
100
AcDbEntity
  8
linea-spessa
100
AcDbLine
 10
-750.5868394417047
 20
-312.8747825284226
 30
0.0
 11
-793.4488563506747
 21
-312.8747825284226
 31
0.0
  0
ARC
  5
385
330
265
100
AcDbEntity
  8
linea-spessa
100
AcDbCircle
 10
-708.0127253491955
 20
-336.8681852725858
 30
0.0
 40
4.0
100
AcDbArc
 50
270.0
 51
359.9999999991662
  0
ARC
  5
386
330
265
100
AcDbEntity
  8
linea-spessa
100
AcDbCircle
 10
-750.5868394417339
 20
-308.874782528379
 30
0.0
 40
4.0
100
AcDbArc
 50
270.0
 51
359.9999999991662
  0
ARC
  5
387
330
265
100
AcDbEntity
  8
linea-spessa
100
AcDbCircle
 10
-750.5868394417339
 20
-308.874782528379
 30
0.0
 40
14.0
100
AcDbArc
 50
270.0
 51
359.9999999991662
  0
ARC
  5
388
330
265
100
AcDbEntity
  8
linea-spessa
100
AcDbCircle
 10
-708.0127253491955
 20
-336.8681852725858
 30
0.0
 40
14.0
100
AcDbArc
 50
270.0
 51
359.9999999991662
  0
LINE
  5
389
330
265
100
AcDbEntity
  8
linea-spessa
100
AcDbLine
 10
-694.0127253491955
 20
-328.6090084502066
 30
0.0
 11
-694.0127253491955
 21
-336.8681852726877
 31
0.0
  0
LINE
  5
38A
330
265
100
AcDbEntity
  8
linea-spessa
100
AcDbLine
 10
-704.0127253491955
 20
-328.6090084502066
 30
0.0
 11
-704.0127253491955
 21
-336.8681852726149
 31
0.0
  0
LINE
  5
38B
330
265
100
AcDbEntity
  8
linea-spessa
100
AcDbLine
 10
-736.5868394417629
 20
-293.9388652689668
 30
0.0
 11
-686.5309928629431
 21
-293.9388652689668
 31
0.0
  0
LINE
  5
38C
330
265
100
AcDbEntity
  8
linea-spessa
100
AcDbLine
 10
-837.4586342607509
 20
-213.7679794740689
 30
0.0
 11
-837.4586342607509
 21
-353.0
 31
0.0
  0
LINE
  5
38D
330
265
100
AcDbEntity
  8
linea-spessa
100
AcDbLine
 10
-827.4586342607218
 20
-213.7679794740689
 30
0.0
 11
-827.458634260809
 21
-353.0
 31
0.0
  0
LINE
  5
38E
330
265
100
AcDbEntity
  8
linea-spessa
100
AcDbLine
 10
-823.4710750378436
 20
-213.7679794740543
 30
0.0
 11
-823.4710750378436
 21
-336.8681852726149
 31
0.0
  0
LINE
  5
38F
330
265
100
AcDbEntity
  8
linea-spessa
100
AcDbLine
 10
-813.4710750377854
 20
-213.7679794740543
 30
0.0
 11
-813.4710750379017
 21
-336.8681852726149
 31
0.0
  0
LINE
  5
390
330
265
100
AcDbEntity
  8
linea-spessa
100
AcDbLine
 10
-807.4488563506164
 20
-213.7679794740397
 30
0.0
 11
-807.4488563506456
 21
-308.874782528379
 31
0.0
  0
LINE
  5
391
330
265
100
AcDbEntity
  8
linea-spessa
100
AcDbLine
 10
-797.4488563505874
 20
-213.7679794740397
 30
0.0
 11
-797.4488563506747
 21
-308.8747825284226
 31
0.0
  0
ARC
  5
392
330
265
100
AcDbEntity
  8
linea-spessa
100
AcDbCircle
 10
-793.4488563506165
 20
-308.874782528379
 30
0.0
 40
4.0
100
AcDbArc
 50
180.0000000008337
 51
269.9999999983325
  0
ARC
  5
393
330
265
100
AcDbEntity
  8
linea-spessa
100
AcDbCircle
 10
-809.4710750378435
 20
-336.8681852725858
 30
0.0
 40
4.0
100
AcDbArc
 50
180.0
 51
269.9999999983325
  0
ARC
  5
394
330
265
100
AcDbEntity
  8
linea-spessa
100
AcDbCircle
 10
-823.4586342607217
 20
-352.9999999999709
 30
0.0
 40
4.0
100
AcDbArc
 50
180.0
 51
269.9999999983325
  0
ARC
  5
395
330
265
100
AcDbEntity
  8
linea-spessa
100
AcDbCircle
 10
-823.45863426078
 20
-353.0
 30
0.0
 40
14.0
100
AcDbArc
 50
180.0
 51
270.0
  0
ARC
  5
396
330
265
100
AcDbEntity
  8
linea-spessa
100
AcDbCircle
 10
-809.4710750378727
 20
-336.8681852726295
 30
0.0
 40
14.0
100
AcDbArc
 50
180.0
 51
270.0
  0
ARC
  5
397
330
265
100
AcDbEntity
  8
linea-spessa
100
AcDbCircle
 10
-793.4488563506456
 20
-308.874782528379
 30
0.0
 40
14.0
100
AcDbArc
 50
180.0
 51
270.0
  0
ARC
  5
398
330
265
100
AcDbEntity
  8
linea-spessa
100
AcDbCircle
 10
-832.4586342607217
 20
-213.7679794740689
 30
0.0
 40
5.000000000014551
100
AcDbArc
 50
0.0
 51
180.0
  0
ARC
  5
399
330
265
100
AcDbEntity
  8
linea-spessa
100
AcDbCircle
 10
-818.4710750377853
 20
-213.7679794740543
 30
0.0
 40
5.000000000014551
100
AcDbArc
 50
0.0
 51
180.0
  0
ARC
  5
39A
330
265
100
AcDbEntity
  8
linea-spessa
100
AcDbCircle
 10
-802.4488563505874
 20
-213.7679794740397
 30
0.0
 40
5.000000000014551
100
AcDbArc
 50
0.0
 51
180.0
  0
ENDBLK
  5
39B
330
265
100
AcDbEntity
  8
0
100
AcDbBlockEnd
  0
BLOCK
  5
39E
330
39D
100
AcDbEntity
  8
0
100
AcDbBlockBegin
  2
rl55-85mblu4
 70
     0
 10
0.0
 20
0.0
 30
0.0
  3
rl55-85mblu4
  1

  0
CIRCLE
  5
39F
330
39D
100
AcDbEntity
  8
linea-spessa
100
AcDbCircle
 10
0.0
 20
0.0
 30
0.0
 40
97.5
  0
CIRCLE
  5
3A0
330
39D
100
AcDbEntity
  8
linea-fine
  6
DASHDOT
100
AcDbCircle
 10
0.0
 20
0.0
 30
0.0
 40
137.5
  0
CIRCLE
  5
3A2
330
39D
100
AcDbEntity
  8
linea-fine
  6
DASHDOT
100
AcDbCircle
 10
0.0
 20
0.0
 30
0.0
 40
162.5
  0
LINE
  5
3A3
330
39D
100
AcDbEntity
  8
linea-fine
100
AcDbLine
 10
-182.5
 20
-182.5
 30
0.0
 11
-182.5
 21
182.5
 31
0.0
  0
LINE
  5
3A4
330
39D
100
AcDbEntity
  8
linea-fine
100
AcDbLine
 10
182.5
 20
182.5
 30
0.0
 11
182.5
 21
-182.5
 31
0.0
  0
LINE
  5
3A5
330
39D
100
AcDbEntity
  8
linea-fine
100
AcDbLine
 10
182.5
 20
-182.5
 30
0.0
 11
-182.5
 21
-182.5
 31
0.0
  0
CIRCLE
  5
3A6
330
39D
100
AcDbEntity
  8
linea-spessa
100
AcDbCircle
 10
-114.9048519428179
 20
-114.9048519428179
 30
0.0
 40
6.0
  0
CIRCLE
  5
3A7
330
39D
100
AcDbEntity
  8
linea-spessa
100
AcDbCircle
 10
-97.22718241316034
 20
-97.22718241314579
 30
0.0
 40
6.0
  0
CIRCLE
  5
3A8
330
39D
100
AcDbEntity
  8
linea-spessa
100
AcDbCircle
 10
114.9048519428179
 20
-114.9048519428179
 30
0.0
 40
6.0
  0
CIRCLE
  5
3A9
330
39D
100
AcDbEntity
  8
linea-spessa
100
AcDbCircle
 10
97.22718241316034
 20
-97.22718241314579
 30
0.0
 40
6.0
  0
LINE
  5
3AA
330
39D
100
AcDbEntity
  8
linea-fine
100
AcDbLine
 10
-182.5
 20
182.5
 30
0.0
 11
182.5
 21
182.5
 31
0.0
  0
CIRCLE
  5
3AB
330
39D
100
AcDbEntity
  8
linea-spessa
100
AcDbCircle
 10
-114.9048519428179
 20
114.9048519428179
 30
0.0
 40
6.0
  0
CIRCLE
  5
3AC
330
39D
100
AcDbEntity
  8
linea-spessa
100
AcDbCircle
 10
-97.22718241316034
 20
97.22718241314579
 30
0.0
 40
6.0
  0
CIRCLE
  5
3AD
330
39D
100
AcDbEntity
  8
linea-spessa
100
AcDbCircle
 10
114.9048519428179
 20
114.9048519428179
 30
0.0
 40
6.0
  0
CIRCLE
  5
3AE
330
39D
100
AcDbEntity
  8
linea-spessa
100
AcDbCircle
 10
97.22718241316034
 20
97.22718241314579
 30
0.0
 40
6.0
  0
ENDBLK
  5
3AF
330
39D
100
AcDbEntity
  8
0
100
AcDbBlockEnd
  0
ENDSEC
  0
SECTION
  2
ENTITIES
  0
INSERT
  5
2A
330
2
100
AcDbEntity
  8
linea-spessa
100
AcDbBlockReference
 66
     1
  2
CART-R-A3
 10
207976.6668024007
 20
69209.72862537126
 30
0.0
  0
ATTRIB
  5
47
330
2A
100
AcDbEntity
  8
cart
 62
     7
100
AcDbText
 10
209348.5578138826
 20
69290.739438757
 30
0.0
 40
20.0
  1
RL 55-85 M/BLU
 51
15.0
  7
SIMPLEX_INCLINATO
 72
     1
 11
209481.891147216
 21
69300.73943875699
 31
0.0
100
AcDbAttribute
  2
DENOMINAZIONE
 70
     0
 74
     2
  0
ATTRIB
  5
48
330
2A
100
AcDbEntity
  8
cart
 62
     7
100
AcDbText
 10
208934.0281274015
 20
69288.23943875699
 30
0.0
 40
25.0
  1
-
 51
15.0
  7
SIMPLEX_INCLINATO
 72
     1
 11
208944.7424131158
 21
69300.73943875699
 31
0.0
100
AcDbAttribute
  2
COD
 70
     0
 74
     2
  0
SEQEND
  5
49
330
2A
100
AcDbEntity
  8
linea-spessa
  0
INSERT
  5
4A
330
2
100
AcDbEntity
  8
linea-fine
100
AcDbBlockReference
  2
rl55-85mblu1
 10
208017.7438621776
 20
71467.17686989345
 30
0.0
  0
INSERT
  5
1AF
330
2
100
AcDbEntity
  8
linea-fine
100
AcDbBlockReference
  2
rl55-85mblu2
 10
208758.8249819066
 20
71037.1216831905
 30
0.0
  0
INSERT
  5
264
330
2
100
AcDbEntity
  8
linea-fine
100
AcDbBlockReference
  2
rl55-85mblu3
 10
208017.7438621776
 20
70365.57088950157
 30
0.0
  0
INSERT
  5
39C
330
2
100
AcDbEntity
  8
linea-fine
100
AcDbBlockReference
  2
rl55-85mblu4
 10
208801.073311765
 20
70365.57088950157
 30
0.0
  0
ENDSEC
  0
SECTION
  2
OBJECTS
  0
DICTIONARY
  5
9
330
0
100
AcDbDictionary
281
     1
  3
ACAD_COLOR
350
26
  3
ACAD_GROUP
350
22
  3
ACAD_LAYOUT
350
D
  3
ACAD_MATERIAL
350
25
  3
ACAD_MLINESTYLE
350
23
  3
ACAD_PLOTSETTINGS
350
24
  3
ACAD_PLOTSTYLENAME
350
8
  3
ACDBHEADERROUNDTRIPXREC
350
3C0
  3
AcDbVariableDictionary
350
3BB
  3
ASE_INDEX_DICTIONARY
350
3B8
  0
DICTIONARY
  5
3
330
2
100
AcDbDictionary
280
     1
281
     1
  3
ACAD_SORTENTS
360
3B0
  0
DICTIONARY
  5
26
102
{ACAD_REACTORS
330
9
102
}
330
9
100
AcDbDictionary
281
     1
  0
DICTIONARY
  5
22
102
{ACAD_REACTORS
330
9
102
}
330
9
100
AcDbDictionary
281
     1
  0
DICTIONARY
  5
D
102
{ACAD_REACTORS
330
9
102
}
330
9
100
AcDbDictionary
281
     1
  3
Layout1
350
11
  3
Model
350
C
  0
DICTIONARY
  5
25
102
{ACAD_REACTORS
330
9
102
}
330
9
100
AcDbDictionary
281
     1
  0
DICTIONARY
  5
23
102
{ACAD_REACTORS
330
9
102
}
330
9
100
AcDbDictionary
281
     1
  3
STANDARD
350
29
  0
DICTIONARY
  5
24
102
{ACAD_REACTORS
330
9
102
}
330
9
100
AcDbDictionary
281
     1
  0
ACDBDICTIONARYWDFLT
  5
8
102
{ACAD_REACTORS
330
9
102
}
330
9
100
AcDbDictionary
281
     1
  3
Normal
350
7
100
AcDbDictionaryWithDefault
340
7
  0
DICTIONARY
  5
3C0
102
{ACAD_REACTORS
330
9
102
}
330
9
100
AcDbDictionary
281
     1
  0
DICTIONARY
  5
3BB
102
{ACAD_REACTORS
330
9
102
}
330
9
100
AcDbDictionary
281
     1
  3
DIMASSOC
350
3BD
  3
HIDETEXT
350
3BC
  3
PROJECTNAME
350
3BE
  0
DICTIONARY
  5
3B8
102
{ACAD_REACTORS
330
9
102
}
330
9
100
AcDbDictionary
281
     1
  3
ASEBlockHierarchyIndexRecord
350
3BA
1001
DCO15
1040
1593863045.406
  0
SORTENTSTABLE
  5
3B0
102
{ACAD_REACTORS
330
3
102
}
330
3
100
AcDbSortentsTable
330
2
  0
LAYOUT
  5
11
102
{ACAD_XDICTIONARY
360
3C3
102
}
102
{ACAD_REACTORS
330
D
102
}
330
D
100
AcDbPlotSettings
  1

  2
none_device
  4
Letter_(8.50_x_11.00_Inches)
  6

 40
6.349999904632567
 41
6.349999904632567
 42
6.350006103515625
 43
6.350006103515625
 44
215.8999938964843
 45
279.3999938964843
 46
0.0
 47
0.0
 48
0.0
 49
0.0
140
0.0
141
0.0
142
1.0
143
1.0
 70
   688
 72
     0
 73
     1
 74
     5
  7

 75
    16
147
1.0
148
0.0
149
0.0
100
AcDbLayout
  1
Layout1
 70
     1
 71
     1
 10
-0.2500002402958907
 20
-0.2499999962453767
 11
10.74999951940821
 21
8.249999763458731
 12
0.0
 22
0.0
 32
0.0
 14
1.000000000000000E+20
 24
1.000000000000000E+20
 34
1.000000000000000E+20
 15
-1.000000000000000E+20
 25
-1.000000000000000E+20
 35
-1.000000000000000E+20
146
0.0
 13
0.0
 23
0.0
 33
0.0
 16
1.0
 26
0.0
 36
0.0
 17
0.0
 27
1.0
 37
0.0
 76
     0
330
E
  0
LAYOUT
  5
C
102
{ACAD_XDICTIONARY
360
3C1
102
}
102
{ACAD_REACTORS
330
D
102
}
330
D
100
AcDbPlotSettings
  1

  2
none_device
  4
Letter_(8.50_x_11.00_Inches)
  6

 40
6.349999904632567
 41
6.349999904632567
 42
6.350006103515625
 43
6.350006103515625
 44
215.8999938964843
 45
279.3999938964843
 46
0.0
 47
0.0
 48
0.0
 49
0.0
140
0.0
141
0.0
142
1.0
143
1.0
 70
 11952
 72
     0
 73
     1
 74
     0
  7

 75
     0
147
1.0
148
-765742.3961100315
149
-837894.7797368196
100
AcDbLayout
  1
Model
 70
     1
 71
     0
 10
0.0
 20
0.0
 11
12.0
 21
9.0
 12
0.0
 22
0.0
 32
0.0
 14
0.0
 24
0.0
 34
0.0
 15
0.0
 25
0.0
 35
0.0
146
0.0
 13
0.0
 23
0.0
 33
0.0
 16
1.0
 26
0.0
 36
0.0
 17
0.0
 27
1.0
 37
0.0
 76
     0
330
2
  0
MLINESTYLE
  5
29
102
{ACAD_REACTORS
330
23
102
}
330
23
100
AcDbMlineStyle
  2
STANDARD
 70
     0
  3

 62
     0
 51
90.0
 52
90.0
 71
     2
 49
0.5
 62
   256
  6
BYLAYER
 49
-0.5
 62
   256
  6
BYLAYER
  0
ACDBPLACEHOLDER
  5
7
102
{ACAD_REACTORS
330
8
102
}
330
8
  0
DICTIONARYVAR
  5
3BD
102
{ACAD_REACTORS
330
3BB
102
}
330
3BB
100
DictionaryVariables
280
     0
  1
1
  0
DICTIONARYVAR
  5
3BC
102
{ACAD_REACTORS
330
3BB
102
}
330
3BB
100
DictionaryVariables
280
     0
  1
1
  0
DICTIONARYVAR
  5
3BE
102
{ACAD_REACTORS
330
3BB
102
}
330
3BB
100
DictionaryVariables
280
     0
  1

  0
XRECORD
  5
3BA
102
{ACAD_REACTORS
330
3B8
102
}
330
3B8
100
AcDbXrecord
280
     1
330
2A
330
4A
330
1AF
330
264
330
39C
  0
DICTIONARY
  5
3C3
330
11
100
AcDbDictionary
280
     1
281
     1
  3
ACAD_XREC_ROUNDTRIP
360
3C4
  0
DICTIONARY
  5
3C1
330
C
100
AcDbDictionary
280
     1
281
     1
  3
ACAD_XREC_ROUNDTRIP
360
3C2
  0
XRECORD
  5
3C4
102
{ACAD_REACTORS
330
3C3
102
}
330
3C3
100
AcDbXrecord
280
     1
102
SHADEPLOT
 70
     0
102
SHADEPLOTRESLEVEL
 70
     2
102
SHADEPLOTCUSTOMDPI
 70
   300
  0
XRECORD
  5
3C2
102
{ACAD_REACTORS
330
3C1
102
}
330
3C1
100
AcDbXrecord
280
     1
102
SHADEPLOT
 70
     0
102
SHADEPLOTRESLEVEL
 70
     2
102
SHADEPLOTCUSTOMDPI
 70
   300
  0
ENDSEC
  0
EOF
